Song name
# A B C D E F G H I J K L M N O P Q R S T U V W X Y Z

Chelsea Grin - Lifted tab

i have this tabbed out for a 6-string in drop A

i got the basic tab from the Guitar Pro. i found doing a 5-string sweep being 
easier. plus it makes you look cooler.

enjoy.


                    (T)                                  (T)
|--------------15-19-20-19-15----------------------15-19-20-19-15-------------|
|-----------17----------------17----------------17----------------17----------|
|--------16----------------------16----------16----------------------16-------|
|-----17----------------------------17----17----------------------------17----|
|--18----------------------------------18---------------------------------18--|
|-----------------------------------------------------------------------------|


                     (T)                                  (T)
|--------------14-18-19-18-14-----------------------14-18-19-18-14------------|
|-----------16----------------16-----------------16----------------16---------|
|--------15-----------------------15----------15----------------------15------|
|-----16-----------------------------16----16---------------------------16----|
|--17-----------------------------------17---------------------------------17-|
|-----------------------------------------------------------------------------|
Tap to rate this tab
 
# A B C D E F G H I J K L M N O P Q R S T U V W X Y Z