Chelsea Grin - Cheyne Stokes tab

Alright, this is my first tab being uploaded.
If you guys want more, I have quite a few songs tabbed in guitar pro.

This really isn't a hard song. The sweeping might be challenging at first but just 
keep trying, you'll get it!
It also helps to have a mastery of pinch harmonics.

They play on a seven string, tuning 7=A 6=E 5=A 4=D 3=G 2=B 1=e,
but I'm broke, and would rather play on a six string.

This is in drop C, and its pretty close...
Besides, no one will know besides you ;)

Song: Cheyne Stokes
Album: Desolation of Eden
Artist: Chelsea Grin
Length: 2:50

Tabbed by Fritz Lueck (Fritztafer), Seattle WA

Intro: 0:00-0:01
D|----------------|
A|----------------|
F|----------------|
C|---------3------|
G|-0-3-2-1-3-[5]b-|
C|-0-3-2-1--------|
PM * * * *

1st Riff: 0:02-0:08
D|------------------------|\
A|------------------------| \
F|------------------------|  \/ 
C|------------------------|  /\2x
G|-0-3-2-1-0------3-2-1-0-| /
C|-0-3-2-1-0------3-2-1-0-|/
PM * * * * *      * * * *

Mod. of 1st Riff: 0:09-0:15
D|---------------------------|\
A|---------------------------| \
F|---------------------------|  \/ 
C|---------------------------|  /\2x
G|-0-3-2-1-0-1t---3-2-1-0-2t-| /
C|-0-3-2-1-0------3-2-1-0----|/
PM * * * * *      * * * *

Transition: 0:15-0:20
D|--------------------------------------------|
A|--------------------------------------------|
F|--------------------------------------------|
C|--------------------------------------------|
G|-0--0--0--00-00-0-[3]b-0-0-0-00-00-0-[2]----|
C|-1--1--1--00-00-0------0-0-0-00-00-0----[3]-|
PM *  *  *  ** ** *      * * * ** ** *

2nd Riff: 0:21-0:33
D|-----------------------------------|\
A|-----------------------------------| \
F|-----------------------------------|  \/
C|-----------------------------------|  /\4x
G|-0-0-4t--3t--6-5--5-3--0-1-3-1-[3]-| /
C|-0-0---------6-5--5-3--0-1-3-1-----|/
PM * *         * *  * *  * * * *

Transition: 0:34-0:35
D|---------|
A|---------|
F|---------|
C|---------| (hold note then bend fast)
G|-[5]~~~b-|
C|---------|
PM                          ________________________________
                           /Mute Strings after each triplet/
Breakdown: 0:36-0:48      /                      _________/
D|-----------------------/----------------------/--------------------|\
A|----------------------/----------------------/---------------------| \
F|---------------------/----------------------/----------------------|  \/
C|--------------------/----------------------/-----------------------|  /\2x
G|-000-000-[3]b-0-0-0-000-000-000-000-000-000-[3]b-0-0-0-------------| /
C|-000-000------0-0-0-000-000-000-000-000-000------0-0-0-0t-4t-3t-1t-|/
PM *** ***      * * * *** *** *** *** *** ***      * * *

Transition: 0:49-0:52
D|-------------|
A|-------------|
F|-------------|
C|-------------|
G|-0--0---0-0-0|
C|-0--0---0-0-0|
PM *  *   * * *

3rd Riff: 0:53-1:07
D|----------------|\
A|----------------| \
F|----------------|  \/
C|----------------|  /\4x
G|-0--0---000-000-| /
C|-0--0---000-000-|/
PM *  *   *** ***

Mod. of 3rd Riff: 1:08-1:21
D|--------------------------131713----------------------1713------131813-------|\
A|------------------------15------15------------------------15--15------15--15-| \
F|----------------------14----------14------------------------14----------14---|  \/
C|--------------------15--------------15---------------------------------------|  /\2x
G|-0--0---000-000-1217-------------------0--0---000-000------------------------| /
C|-0--0---000-000------------------------0--0---000-000------------------------|/
PM *  *   *** ***                        *  *   *** ***

Transition: 1:22-1:26
D|---|
A|---|
F|---|
C|-0-|
G|-0-|
C|-0-|
PM

Intro to 4th Riff: 1:27-1:38
D|------------------------------------------------|\
A|------------------------------------------------| \
F|------------------------------------------------|  \/
C|-------------------2t---------------------------|  /\2x
G|----0t-3t-0t----4t-------0t-3t-0t----4t-0-3-2-1-| /
C|-0t----------3t-------0t----------3t----0-3-2-1-|/
PM                                        * * * *

4th Riff: 1:39-1:57                 
D|-------------------------------------------|\
A|-------------------------------------------| \
F|-------------------------------------------|  \/
C|-------------------2t----------------------|  /\3x
G|----0t-3t-0t----4t-------0t-3t-0t----4t----| /
C|-0t----------3t-------0t----------3t----2t-|/
PM                                        ||
                                          || Altrenate Ending 3rd time
                                         / |
 Altrenate Ending_______________________/ /
D|---------|_____________________________/
A|---------|                                
F|---------|
C|---------|
G|-0-3-2-1-|
C|-0-3-2-1-|
PM * * * *

5th Riff: 1:58-2:13
D|---------------------------------------------------|\
A|---------------------------------------------------| \
F|---------------------------------------------------|  \/Not 100% percent about this part
C|---------------------------------------------------|  /\2x
G|-----------------------------------------000-000-0-| /
C|-0-1-3-0-1-4-1-4-0-1-3-0-1-4-1-4-0-1-3-0-000-000-0-|/
PM                                         *** *** *

Breakdown: 2:14-2:41
D|----------------|\
A|----------------| \
F|----------------|  \/       There is parts with the riff above faded out in it.
C|----------------|  /\7x     If you wanna play those, you can figure it out.
G|-000-000--0-000-| /
C|-000-000--0-000-|/
PM *** ***  * ***

Outro: 2:42-2:50
D|-------------------|
A|-------------------|
F|-------------------|
C|---------3-------0-|
G|-0-3-2-1-3-[5]b--0-|
C|-0-3-2-1---------0-|
PM * * * *         *

~~~~~~~~~~~~~~~~~~~~~~~~~
|KEY|KEY|KEY|KEY|KEY|KEY|
~~~~~~~~~~~~~~~~~~~~~~~~~
PM = Palm Mute
[#] = Pinch harmonic
b = Bend
t = Tremelo picking
~ = Hold note
Tap to rate this tab
 
# A B C D E F G H I J K L M N O P Q R S T U V W X Y Z