Chelsea Grin - Elysium tab

Chelsea Grin
elysium solo tab
Drop A: A E A D F# B


e|-17b-13-15----------------------------17b-13-15--------------------17s20---|
B|---------------15------17-13----13------------------15------17-13----------|
G|-------------------14----------14--------------------------14--------------|
D|---------------------------------------------------------------------------|
A|---------------------------------------------------------------------------|
E|---------------------------------------------------------------------------|

e|-17-18-17-------------------------------18s20s18-17------------------------|
B|----------18----18s20---18-17-----------------------18---------------------|
G|-------------17---------------15-14-15-----------------17s19s17-15-14-15p14|
D|---------------------------------------------------------------------------|
A|---------------------------------------------------------------------------|
E|---------------------------------------------------------------------------|

e|-----------------18p17--------18p17-----------18p17------------------------|
B|----------------------18-----------18--------------18----------------------|
G|----------14-15---------17s19--------17s19s17--------17s19s17-15--14-15-14-|
D|-15p12-15------------------------------------------------------------------|
A|---------------------------------------------------------------------------|
E|---------------------------------------------------------------------------|

e|-----------18p17---------18p17------------18p17----------------------------|
B|----------------18------------18---------------18--------------------------|
G|------------------17s19---------17s19s17---------17s19s17-15--14-15-14-----|
D|-15-12-15------------------------------------------------------------------|
A|---------------------------------------------------------------------------|
E|---------------------------------------------------------------------------|

e|---------------------------------------------------------------------------|
B|---------------------------------------------------------------------------|
G|---------------------------------------------------------------------------|
D|-15-12-15--/19---15-/19\17---14-15-14----------------18--\14v----14h15p14--|
A|--------------------------------------15-12-15-/20-------------------------|
E|---------------------------------------------------------------------------|

e|---------------------------------------------------------------------------|
B|---------------------------------------------------------------------------|
G|---------------------------------------------------------------------------|
D|----------14-12~~~~\\------------------------------------------------------|
A|-15-12-15------------------------------------------------------------------|
E|---------------------------------------------------------------------------|

Tap to rate this tab
 
# A B C D E F G H I J K L M N O P Q R S T U V W X Y Z