Guitaretab - guitar tabs
Song name
# A B C D E F G H I J K L M N O P Q R S T U V W X Y Z

Chelsea Grin - Revenant tab

-------------------------------------------------------------------------------
			                               revenant- chelsea grin
-------------------------------------------------------------------------------

Tabbed by:
Aaron

Tuning:
drop A


intro 2x                                   "i am the reason you cannot sleep..."
e|-----------------------------------------|----------------------------------------|
B|-----------------------------------------|----------repeat-this-section-----------|
G|-----------------------------------------|----------however-many-times------------|
D|-3333-33-33-33---3333-----3333-----------|-333-33-33-33---3333-----3333-----------|
A|-2222-22-22-22---2222-3*b-2222-----------|-222-22-22-22---2222-3*b-2222-----------|
E|-3333-33-33-33---3333-----3333-000-0-0-0-|-333-33-33-33---3333-----3333-000-0-0-0-|
   .... .. .. ..   ....     ....             ... .. .. ..   ....     ....

guitar1 
e|---------------------------------------------------------------3t-2t---------|
B|---------------------------------------------------------------------4t-3t---|
G|----------0t-2t-3t-2t--0t-2t-0t-----------------0t-2t-3t-2t-0t---------------|
D|-0t-1t-4t-----------------------4t-1t-0t--1t-4t------------------------------|
A|-----------------------------------------------------------------------------|
E|-----------------------------------------------------------------------------|

guitar2 
e|---------------------------------------------------------------------------|
B|---------------------------------------------------------------------------|
G|---------------------------------------------------------------------------|
D|-0------3--8---5---1-------------------------------------------------------|
A|-0------3--8---5---1-------------------------------------------------------|
E|-0------3--8---5---1-------------------------------------------------------|


verse:
guitar 1
e|---------------------------------------------------------------3t-2t---------|
B|---------------------------------------------------------------------4t-3t---|
G|----------0t-2t-3t-2t--0t-2t-0t-----------------0t-2t-3t-2t-0t---------------|
D|-0t-1t-4t-----------------------4t-1t-0t--1t-4t------------------------------|
A|-----------------------------------------------------------------------------|
E|-----------------------------------------------------------------------------|

guitar 2
e|---------------------------------------------------------------------------|
B|---------------------------------------------------------------------------|
G|---------------------------------------------------------------------------|
D|-00-00--0-0-0-00-00-0-00-00-0-0000-0000--0-0-0-00-00-0-0-------------------|
A|-00-00--0-0-0-00-00-0-00-00-0-0000-0000--0-0-0-00-00-0-0-------------------|
E|-00-00--0-0-0-00-00-0-00-00-0-0000-0000--0-0-0-00-00-0-0-------------------|
[ Tab from: http://www.guitaretab.com/c/chelsea-grin/280739.html ]
solo
guitar 1
e|-565--33-55--33-22---------------------------------------------------------|
B|------------------4-343-11-33------------I'm-not-so-good-at-sweeping-------|
G|------------------------------33-22-0----so-if-anyone-could-put------------|
D|-----------------------------------------the-solo-in-a-correction----------|
A|-----------------------------------------that-would-be-great---------------|
E|---------------------------------------------------------------------------|

guitar 2
e|---------------------------------------------------------------------------|
B|---------------------------------------------------------------------------|
G|---------------------------------------------------------------------------|
D|-0-------1---5--4--0-----3--8---5--1---------------------------------------|
A|-0-------1---5--4--0-----3--8---5--1---------------------------------------|
E|-0-------1---5--4--0-----3--8---5--1---------------------------------------|




breakdown
"i am inside of your head..."
e|---------------------------------------------------------------------------|
B|---------------------------------------------------------------------------|
G|---------------------------------------------------------------------------|
D|-1-1111--1111-1111-1-1-1-1--1-1-1-1-1--------------------------------------|
A|-0-0000--0000-0000-0-0-0-0--0-0-0-0-0--------------------------------------|
E|-1-1111--1111-1111-1-1-1-1--1-1-1-1-1--------------------------------------|


verse riff 1x


breakdown2 x2
e|---------------------------------------------------------------------------|
B|---------------------------------------------------------------------------|
G|---------------------------------------------------------------------------|
D|-00-00--00-00--0-0-0-00-00-0-00-00-0-0000-0000-0-0-0-00-00-0-0-------------|
A|-00-00--00-00--0-0-0-00-00-0-00-00-0-0000-0000-0-0-0-00-00-0-0-------------|
E|-00-00--00-00--0-0-0-00-00-0-00-00-0-0000-0000-0-0-0-00-00-0-0-------------|




guitar1
e|---------------------------------------------3~2~~-------------------------|
B|-------------------------------------------------4~3~----------------------|
G|--------0~2~3~2~~0~2~0~-----------0~2~3~2~~0~------------------------------|
D|-0~~1~4~---------------4~1~0~~1~4~-----------------------------------------|
A|---------------------------------------------------------------------------|
E|---------------------------------------------------------------------------|

guitar2
e|---------------------------------------------------------------------------|
B|---------------------------------------------------------------------------|
G|---------------------------------------------------------------------------|
D|-00-00--00-00--0-0-0-00-00-0-00-00-0-0000-0000-0-0-0-00-00-0-0-------------|
A|-00-00--00-00--0-0-0-00-00-0-00-00-0-0000-0000-0-0-0-00-00-0-0-------------|
E|-00-00--00-00--0-0-0-00-00-0-00-00-0-0000-0000-0-0-0-00-00-0-0-------------|


end with
e|---------------------------------------------------------------------------|
B|---------------------------------------------------------------------------|
G|---------------------------------------------------------------------------|
D|-0~~-----------------------------------------------------------------------|
A|-0~~-----------------------------------------------------------------------|
E|-0~~-----------------------------------------------------------------------|

there's a breakdown at the end but i don't feel like tabbing it. 
Related for Revenant tab
Revenant chords by Chelsea Grin