Chelsea Grin - The Human Condition tab

Tabbed by:
aaron

Tuning:
drop A

I didn't tab the intro but there's a really good tab for it already, and I only have a 
6 string anyway.
You could probably figure the rest of the song out for yourself but I tabbed it 
anyway.

this is after the sweeping stops
e|---------------------------------------------------------------------------|
B|---------------------------------------------------------------------------|
G|---------------------------------------------------------------------------|
D|---------------------------------------------------------------------------|
A|000000000000000000000000-0-0-0000000000000000000000000000------------------|
E|111111111111111111111111-1-1-1111111111111111111111111111-000-000----------|

8x played in the background of the next part
e|---------------|-----|
B|---------------|-----|
G|---------------|-----|
D|---------------|-0~~-|
A|000-000000-00--|-0~~-|
E|111-111111-11--|-0~~-|

"you just say what you're supposed to say..." 3x
e|-----------------------------------------11111111(11s)---------------------|
B|------10101010101010101010------101010999----------------------------------|
G|888777--------------------888777-------------------------------------------|
D|---------------------------------------------------------------------------|
A|---------------------------------------------------------------------------|
E|---------------------------------------------------------------------------|

e|---------------------------------------------------------------------------|
B|---------------------------------------------------------------------------|
G|---------------------------------------------------------------------------|
D|---------------------------------------------------------------------------|
A|---------------------------------------------------------2-1-0-------------|
E|-1b0000-1b0000-1b000000000000-1b0000-1b0000-1b0000000000-------------------|

e|-----------------------------------------------------------------------------|
B|-----------------------------------------------------------------------------|
G|-----------------------------------------------------------------------------|
D|-----------------------------------------------------------------------------|
A|-------------------------------------------------------0-2-1-0---------------|
E|-1b0000-1b0000-1b000000000000-1b0000-1b0000-1b0000000000-3-2-1---------------|

e|---------------------------------------------------------------------------|
B|---------------------------------------------------------------------------|
G|---------------------------------------------------------------------------|
D|---------------------------------------------------------------------------|
A|-1-0000-1-0000-1-000000000000-1-0000-1-0000-1-0000000000-2-1-0-------------|
E|-1-0000-1-0000-1-000000000000-1-0000-1-0000-1-0000000000-------------------|

e|---------------------------------------------------------------------------|
B|---------------------------------------------------------------------------|
G|---------------------------------------------------------------------------|
D|---------------------------------------------------------------------------|
A|-1-0000-1-0000-1-000000000000-1-0000-1-0000-1-0000000000-2-1-0-------------|
E|-1-0000-1-0000-1-000000000000-1-0000-1-0000-1-0000000000-3-2-1-------------|

8x
e|------------------------------|
B|------------------------------|
G|------------------------------|
D|------------------------------|
A|--5/9--9\8--5\4--4-5-4-1-4-1--|
E|00---00---00---00-------------|

3x
e|-------------------|-------------|
B|-------------------|-------------|
G|-------------------|-------------|
D|-------------------|-------------|
A|-------------------|-------------|
E|00000-0-000-00000--|00000-0-000--|

2x
e|---------------------------------------------------------------------------|
B|---------------------------------------------------------------------------|
G|---------------------------------------------------------------------------|
D|---------------------------------------------------------------------------|
A|00000-0-000-00000-00000--0-00000000000-0-0--00000--------------------------|
E|11111-1-111-11111-11111--1-11111111111-1-1--11111--------------------------|

4x
e|-------------------|
B|-------------------|
G|-------------------|
D|-------------------|
A|-------------------|
E|00000-0-000-00000--|

repeat this to the end
e|---------------------------------------------------------------------------|
B|---------------------------------------------------------------------------|
G|---------------------------------------------------------------------------|
D|-----------------------------------1---------------------------------------|
A|-----------------------------------1-3-2-0-1-------------------------------|
E|0~--1b--0~--1b--0~1b-0~--1b--0~--1b--3-2-0-1-------------------------------|
Tap to rate this tab
 
# A B C D E F G H I J K L M N O P Q R S T U V W X Y Z