Song name
# A B C D E F G H I J K L M N O P Q R S T U V W X Y Z

Chelsea Grin - Elysium tab

 Artist: Chelsea Grin
   Song: Elysium
 Tuning: Drop A (A,E,A,D,F#,B)

 This is the guitar solo to the song Elysium by Chelsea Grin.
 I noticed some or many of the notes in the other tabs of this
 were a little off so I decided to try tabbing it myself. I hope
 this is accurate, I'm about 99% sure it is. Enjoy. =]


 B|-17b18rb17-----15~--------------------17b18rb17-----15~--------------|
F#|----------18~-------15~----17------------------18~-------15~----17---|
 D|-------------------------14--17-14/17-------------------------14--17-|
 A|---------------------------------------------------------------------|
 E|---------------------------------------------------------------------|
 A|---------------------------------------------------------------------|
  |
 B|-17/20-20~----17h18p17--------------------------------18/20\18-17--------|
F#|----------------------18--18/20~---18-----------------------------18~----|
 D|------------------------17------------17-15-14~--15~---------------------|
 A|-------------------------------------------------------------------------|
 E|-------------------------------------------------------------------------|
 A|-------------------------------------------------------------------------|
  |
 B|-------------------------------------------18p17---------18p17-------------|
F#|------------------------------------------------18------------18-----------|
 D|-17/19\17-15~--14~--15-14----------14h15----------17/19~--------17/19\17~--|
 A|--------------------------15----15-----------------------------------------|
 E|-----------------------------17--------------------------------------------|
 A|---------------------------------------------------------------------------|
  |
 B|-18p17-------------------------------------18p17---------18p17-------------|
F#|------18----------------------------------------18------------18-----------|
 D|--------17/19\17-15~---14-15-14-------------------17/19~--------17/19\17~--|
 A|--------------------------------15----15~----------------------------------|
 E|-----------------------------------17--------------------------------------|
 A|---------------------------------------------------------------------------|
  |
 B|-18p17-----------------------------------------------------------------|
F#|------18---------------------------------------------------------------|
 D|--------17/19\17-15~---14-15-14----------------------------------------|
 A|--------------------------------15----15~--15/19~------15~--/19\17~----|
 E|-----------------------------------17----------------------------------|
 A|-----------------------------------------------------------------------|
  |
 B|-----------------------------------------------------------------------------|
F#|-----------------------------------------------------------------------------|
 D|-----------------------------------------------------------------------------|
 A|-14h15p14---------15~------15/19~--14~--b15rb14b15rb14~--15p14-----10/14-12~-|
 E|---------15\12/15---------------------------------------------15\12----------|
 A|-----------------------------------------------------------------------------|

 The End. Rate and comment. =]

 Key:

     b: bend
    rb: release bend
     h: hammer-on
     p: pull-off
     ~: let note ring
     /: slide up
     \: slide down
Tap to rate this tab
# A B C D E F G H I J K L M N O P Q R S T U V W X Y Z