Song name
# A B C D E F G H I J K L M N O P Q R S T U V W X Y Z

Chelsea Grin - Lillith tab

-------------------------------------------------------------------------------
                             LILLITH, Chelsea Grin
-------------------------------------------------------------------------------
Tabbed by: Cdyt7717
Email:
Tuning:AEADF#B
Hey guys, im trying to figure this song out, lemme know what you think, if this is
correct, ill try to get more up soon. thanks!
B|-------------------------------------------------------|
F|-------------------------------------------------------|
D|-------------------------------------------------------|
a|-------------------------------------------------------|
E|------------------------------3-3-3--------------------|
A|0-0-0-13-13-13-10-10-10-0-0-0-------1-1-1-0-0-0-4-4-4--|

B|-------------------------------------------------------|
F|-------------------------------------------------------|
D|-------------------------------------------------------|
a|-------------------------------------------------------|
E|------------------------------------------3-3-3-6-6-6--|
A|0-0-0-13-13-13-10-10-10-0-0-0-1-1-1-4-4-4--------------|
  . . . .  .  .  .  .  .  . . . . . . . . . . . . . . .
B|-------------------------------------------------------|
F|-------------------------------------------------------|
D|-------------------------------------------------------|
a|-------------------------------------------------------|
E|------------------------------3-3-3--------------------|
A|0-0-0-13-13-13-10-10-10-0-0-0-------1-1-1-0-0-0-4-4-4--|
  . . . .  .  .  .  .  .  . . . . . . . . . . . . . . .
D|-------------------------|
A|-------------------------|
F|-------------------------|
C|-------------------------|
G|-------------------------|
C|3331-0-3331-0--0-0--1-3--|
  .... . .... .
Tap to rate this tab
 
# A B C D E F G H I J K L M N O P Q R S T U V W X Y Z