Song name
# A B C D E F G H I J K L M N O P Q R S T U V W X Y Z

Chelsea Grin - Lilith tab

Band: Chelsea Grin
Song: Lilith (Intro)
Album: Evolve - EP (2012)
Tuning: Drop A (A,E,A,D,G,B,E)

After really, really, reeeaaaaaaallllllllyyyyyy sitting down and listening to the 
complexity of this song,
I might have gotten, for the most part, the main idea of the intro. Feel free to 
contact me by email or
facebook about what you think about my ears way of tabbing out this bad ass intro.
Best to play this along with listen to the track to get the real feel.
Tabbed by Shawn Shindle:
shawnshindle@yahoo.com OR facebook.com/shawnshindle

Tablature Key:
Palm mute = *
Harmonic pinch = ^

Intro:
E|--------------------------|--------------------------|
B|--------------------------|--------------------------|
G|--------------------------|--------------------------|
D|--------------------------|--------------------------|
A|--------------------------|--------------------------|
E|----666555---333----------|-------------------333666-|
A|-000------000---444777888-|-777000444555111444-------|
pm.************      ******   ******************

E|--------------------------|--------------------------|
B|--------------------------|--------------------------|
G|--------------------------|--------------------------|
D|--------------------------|--------------------------|
A|--------------------------|------1-0------1----------|
E|----999---666999888---666-|-3111-1-0-3111-1--------6-|
A|-000---000---------000----|-3111-1-0-3111-1--0--1----|
pm.************************   **** * * **** *

E|--------------------------|--------------------------|
B|--------------------------|--------------------------|
G|--------------------------|--------------------------|
D|--------------------------|--------------------------|
A|--------------------------|--------------------------|
E|----666555---333----------|-------------------333666-|
A|-000------000---444777888-|-777000444555111444-------|
pm.************      ******   ******************

E|--------------------------|--------------------------|
B|--------------------------|--------------------------|
G|--------------------------|--------------------------|
D|--------------------------|--------------------------|
A|--------------------------|------1-0------1---1----1-|
E|----999---666999888---666-|-3111-1-0-3111-1--00---00-|
A|-000---000---------000----|-3111-1-0-3111-1--01---01-|
pm.************************   **** * * **** *  **   **

E|--------------------------|--------------------------|
B|--------------------------|--------------------------|
G|--------------------------|--------------------------|
D|--------------------------|--------------------------|
A|--------------------------|--------------------------|
E|----666555---333----------|-------------------333666-|
A|-000------000---444777888-|-777000444555111444-------|
pm.************      ******   ******************

E|--------------------------|--------------------------|
B|--------------------------|--------------------------|
G|--------------------------|--------------------------|
D|--------------------------|--------------------------|
A|--------------------------|------1-0------1----------|
E|----999---666999888---666-|-3111-1-0-3111-1--------6-|
A|-000---000---------000----|-3111-1-0-3111-1--0--1----|
pm.************************   **** * * **** *

E|-------------------------------------------------|--------------------------|
B|-------------------------------------------------|--------------------------|
G|-------------------------------------------------|--------------------------|
D|-------------------------------------------------|--------------------------|
A|---8-7---5-------------------5-8---8-------------|------1-0------1---1----1-|
E|-0-6-5-0-3-0-4-8-7-0-4-5-1-4-3-6-0-6-0-1-4-3---6-|-3111-1-0-3111-1--00---00-|
A|-0-----0---0-4-8-7-0-4-5-1-4-----0---0-1-4-3-0---|-3111-1-0-3111-1--01---01-|
pm.* * * * * * * * * * * * * * * * * * * * * * * ^   **** * * **** *  **   **
Tap to rate this tab
 
# A B C D E F G H I J K L M N O P Q R S T U V W X Y Z