Song name
# A B C D E F G H I J K L M N O P Q R S T U V W X Y Z

Chelsea Grin - Lilith tab

7 string tabs for the lead guitar

Intro(verse 1) - 0:16-0:41

E|---------------------------------------------------------------------------|
B|---------------------------------------------------------------------------|
G|---------------------------------------------------------------------------|
D|---------------------------------------------------------------------------|
A|---------------------------------------------------------------------------|
E|---666555---3------111000---------------333666-----------------------------|
A|000------000--6-000------000444555111444------000555000111444333111333-----|
======
E|--------------------|
B|--------------------|
G|--------------------|
D|--------------------|
A|--------------------|
E|222-1-0-222-1-----6-|
A|222-1-0-222-1-00-0--|
(x3 played)

0:41-0:49
E|---------------------------------------------------------------------------|
B|---------------------------------------------------------------------------|
G|---------------------------------------------------------------------------|
D|---------------------------------------------------------------------------|
A|--8-7-----------------------3-6---------------3'---------------------------|
E|0-6-5-0-3---0-8-7-0-4-5-1-4-3-6-0-5-0-1-4-3-1---222-1-0-222-1-00-00--------|
A|0-----0---6-0-8-7-0-4-5-1-4-----0-5-0-1-4-3-1---222-1-0-222-1-00-00--------|

Build up - 0:50-0:56

E|-------------------------------------------------------------------|
B|-------------------------------------------------------------------|
G|-------------------------------------------------------------------|
D|-------------------------------------------------------------------|
A|33----33----33----33----33----3333----33-----33-----33-----33------|
E|332-1-332-1-332-1-332-1-332-1-33332-1-33-2-1-33-2-1-33-2-1-33-2-1-2|
A|--2-1---2-1---2-1---2-1---2-1-----2-1----2-1----2-1----2-1----2-1-2|

1st Breakdown - 0:59-1:15

E|---------------------------------------------------------------------------|
B|---------------------------------------------------------------------------|
G|---------------------------------------------------------------------------|
D|---------------------------------------------------------------------------|
A|---------------------------------------------------------------------------|
E|0000-0-00000-0-0-00000-0-00000-0-0-00000-0-00000-0-0-0-00000-0-0-0---------|
A|0000-0-00000-0-0-00000-0-00000-0-0-00000-0-00000-0-0-0-00000-0-0-0---------|
(x2 played)

Pre-Chorus - 1:16-1:35--------------------------------------------------------|
E|----------------------------------------------------------------------------|
B|----------------------------------------------------------------------------|
G|----------------------------------------------------------------------------|
D|----------------------------------------------------------------------------|
A|----------------------------------------------------------------------------|
E|0000---0000--0000-0000-0000--0000-0000--------------------------------------|
A|0000---0000--0000-0000-0000--0000-0000--------------------------------------|
(x2 before the build up)

E|---------------------------------------------------------------------------|
B|---------------------------------------------------------------------------|
G|---------------------------------------------------------------------------|
D|---------------------------------------------------------------------------|
A|---------------------------------------------------------------------------|
E|000--000-000--000--000-000-000-000-----------------------------------------|
A|000--000-000--000--000-000-000-000-----------------------------------------|

Chorus - 1:36-1:53

E|19-15----------------------------------------15-19-15----------------------|
B|------19-15----------------------------15-19----------19-15----------------|
G|-----------16-12-----------------12-16----------------------16-12----------|
D|-----------------16-12-----12-16----------------------------------16-12----|
A|------------------------14----------------------------------------------14-|
E|---------------------------------------------------------------------------|
A|---------------------------------------------------------------------------|
======
E|-----------------|
B|-----------------|
G|------12---------|
D|16-12----16-12---|
A|---------------14|
E|-----------------|
A|-----------------|
(This section played x4 before the section below)

E|------------------------|
B|------------------------|
G|------16-12--------16-12|
D|16-12--------16-12------|
A|------------------------|
E|------------------------|
A|------------------------|

Bridge - 1:55-2:26

E|---------------------------------------------------------------------------|
B|---------------------------------------------------------------------------|
G|---------------------------------------------------------------------------|
D|-------------------6------------------------6------------------------------|
A|-------------------7------------------------7------------------------------|
E|666---555----3-3-3--------6666--33333333-3-------666---555-----------------|
A|---000---000-3-3-3--333333----33----3333-3----000---000--------------------|
======
E|--------------------------------|
B|--------------------------------|
G|--------------------------------|
D|--------------------------------|
A|--------------------------------|
E|-65-3--10-----36---------010---5|
A|0--0-60--04514--050143130---875-|
(played x2)
E|------------------------------------------------------------------|
B|------------------------------------------------------------------|
G|------------------------------------------------------------------|
D|------------------------------------------------------------------|
A|------------------------------------------------------------------|
E|---6-5---3------1-0-----------3-6----------------------0-1-0-----5|
A|000---000--6-000---0004-5-1-4----0005-0001-4-3-0001-000-----8-7-5-|
(Played x2)
(The second time played, the open triplets are now single notes. Listen to this part of 
the song and you'll understand what I mean)

Bridge 2 - 2:28-2:37
-SOLO-
E|-------------7-10----7-10-12-7-10-12-15-19-15----------15-19-22-24-22-19-15-|
B|-----------8------8---------------------------17-15-17----------------------|
G|-------7-9------------------------------------------------------------------|
D|-----9----------------------------------------------------------------------|
A|7-10------------------------------------------------------------------------|
E|----------------------------------------------------------------------------|
A|----------------------------------------------------------------------------|
======
E|17-15-15---|
B|---------16|
G|-----------|
D|-----------|
A|-----------|
E|-----------|
A|-----------|


E|----------------11-16-11-----------11-16-19-18-16----------16-19-24-23-21--|
B|-------------12-----------12-11-12----------------17-16-17-----------------|
G|----------13---------------------------------------------------------------|
D|------13-------------------------------------------------------------------|
A|11-14----------------------------------------------------------------------|
E|---------------------------------------------------------------------------|
A|---------------------------------------------------------------------------|
======
E|-----------------------|
B|24-23-21---------------|
G|---------23-21---------|
D|---------------24-23-21|
A|-----------------------|
E|-----------------------|
A|-----------------------|

Breakdown - 2:37-2:52

E|--------------------------------------------------------------|
B|--------------------------------------------------------------|
G|--------------------------------------------------------------|
D|--------------------------------------------------------------|
A|--------------------------------------------------------------|
E|0000-0000-0000-0000-0000-0000-0000-0000-0000--0000--0000-0000-|
A|0000-0000-0000-0000-0000-0000-0000-0000-0000--0000--0000-0000-|
======
E|--------------------------------------|
B|--------------------------------------|
G|--------------------------------------|
D|--------------------------------------|
A|--------------------------------------|
E|000--000--000-000-0----000000000-0-00-|
A|000--000--000-000-0----000000000-0-00-|

Chorus 2 - 2:54-3:12

E|19-15----------------------------------------15-19-15----------------------|
B|------19-15----------------------------15-19----------19-15----------------|
G|-----------16-12-----------------12-16----------------------16-12----------|
D|-----------------16-12-----12-16----------------------------------16-12----|
A|------------------------14----------------------------------------------14-|
E|---------------------------------------------------------------------------|
A|---------------------------------------------------------------------------|
======
E|-----------------|
B|-----------------|
G|------12---------|
D|16-12----16-12---|
A|---------------14|
E|-----------------|
A|-----------------|
(This section played x4 before the section below)

E|------------------------|
B|------------------------|
G|------16-12--------16-12|
D|16-12--------16-12------|
A|------------------------|
E|------------------------|
A|------------------------|
(Played 2x)

WOOP - 1 second or so
E|666---555---|
A|---000---000|

Then, the chorus solo played again! :D

E|19-15----------------------------------------15-19-15----------------------|
B|------19-15----------------------------15-19----------19-15----------------|
G|-----------16-12-----------------12-16----------------------16-12----------|
D|-----------------16-12-----12-16----------------------------------16-12----|
A|------------------------14----------------------------------------------14-|
E|---------------------------------------------------------------------------|
A|---------------------------------------------------------------------------|
======
E|-----------------|
B|-----------------|
G|------12---------|
D|16-12----16-12---|
A|---------------14|
E|-----------------|
A|-----------------|
(This section played x3. Then, the whole solo is moved down from fret 19 to fret 16, the 
solo is still played the same as above but three frets down from 19)

Outro! :D

E|---------------------------------------------------------------------------|
B|---------------------------------------------------------------------------|
G|---------------------------------------------------------------------------|
D|---------------------------------------------------------------------------|
A|---------------------------------------------------------------------------|
E|---666555---3------111000---------------333666-----------------------------|
A|000------000--6-000------000444555111444------000555000111444333111333-----|
======
E|----------------|
B|----------------|
G|----------------|
D|----------------|
A|----------------|
E|0-7-8-5-8-7-5-3'|
A|0-7-8-5-8-7-5---|

E|---------------------------------------------------------------------------|
B|---------------------------------------------------------------------------|
G|---------------------------------------------------------------------------|
D|---------------------------------------------------------------------------|
A|---------------------------------------------------------------------------|
E|---666555---3------111000---------------333666-----------------------------|
A|000------000--6-000------000444555111444------000555000111444333111333-----|
======
E|--------------------|
B|--------------------|
G|--------------------|
D|--------------------|
A|--------------------|
E|222-1-0-222-1-----6-|
A|222-1-0-222-1-00-0--|

You just learned how to play Lilith the same way Travis Montgomery plays it!
I really hope this tab helped you out. It took me at least 2-4 hours to tab -.-
Sorry if you dont have a 7 string. I only have the 7 string tabs. if you have a 6 string 
then simply search for the 6 string tabs!
Tap to rate this tab
# A B C D E F G H I J K L M N O P Q R S T U V W X Y Z