Song name
# A B C D E F G H I J K L M N O P Q R S T U V W X Y Z

Chelsea Grin - Dont Ask Dont Tell tab

Chelsea Grin - Don't Ask, Don't Tell 
Tabbed by Lorcan Ward
Tuning - Drop A

Watch my video for fingering/phrasing:
http://www.youtube.com/watch?v=VOlHZpizS18

Contact me at:
https://www.facebook.com/LorcanWardGuitar

|--------------------------------------------------------------------|
|----------------------15/18---17---17-18-17-17-18-17-17-18-17-etc-\-|
|------------------14------------------------------------------------|
|--------------14----------------------------------------------------|
|------12--15--------------------------------------------------------|
|--12----------------------------------------------------------------|
|--------------------------------------------------------------------|

|-------------------------------------------------------|
|--10--12--13--/18--17--15--17~~\-----------------------|
|----------------------------------------10--12--13~~~--|
|-----------------------------------/10-----------------|
|-------------------------------------------------------|
|-------------------------------------------------------|
|-------------------------------------------------------|

|---------13--15~~~~~~~~\-----/13--15--16~~~\---/20--19-20-19-|
|--10/13------Heavy Vibrato---------------------------trill---|
|-------------------------------------------------------------|
|-------------------------------------------------------------|
|-------------------------------------------------------------|
|-------------------------------------------------------------|
|-------------------------------------------------------------|

|--23-22-20-19-22-20-19----------------------------------------|
|-----------------------20-21-20-18-16-20-18-16----------------|
|-----------------------------------------------19-20-19-17-16-|
|--------------------------------------------------------------|
|--------------------------------------------------------------|
|--------------------------------------------------------------|
|--------------------------------------------------------------|

|-------------------------------------------------------------|
|-------------------------------------------------------------|
|19-17-16-----------------------------------------------------|
|---------17-18-17-15----17-15--------------------------------|
|---------------------18-------18-17-18-17-15-14-17-15-14-----|
|---------------------------------------------------------15--|
|-------------------------------------------------------------|

|------------------------------------------------------------------|
|------------------------------------------------------------------|
|------------------------------------------------------------------|
|------------------------------------------------------------------|
|------------------------------------------------------------------|
|-16-15-13-11-15-13-11-10-13-11-10-8-11-10-8-7-10-8-7----8-7-------|
|-----------------------------------------------------11-----11-10-|

|-------------------------------------------------------------|
|-------------------------------------------------------------|
|-------------------------------------------------------------|
|--------------------------10--13---------------------12--13--|
|------------------10--11---------------------11--14----------|
|----------10--11---------------------10--11------------------|
|--10--11-----------------------------------------------------|

|------------------------------------------|
|--13--16--15b16r15------15/20b21~~~~~~~---|
|--------------------13--------------------|
|------------------------------------------|
|------------------------------------------|
|------------------------------------------|
|------------------------------------------|
Tap to rate this tab
# A B C D E F G H I J K L M N O P Q R S T U V W X Y Z