Guitaretab - guitar tabs
Song name
# A B C D E F G H I J K L M N O P Q R S T U V W X Y Z

Chelsea Smiles - Pillbox tab

----------------------------------------------------------------------
			     Pillbox Ė Chelsea Smiles
----------------------------------------------------------------------
Tabbed by:cabal_almeida
Email:cabal_almeida@hotmail.com

Once again there are some words missing from the lyrics. 
Any corrections please send them to me.
Enjoy this great RockĎn Roll tune...

Tuning:standard

   G#       C      G#       D#     G#       C#     D#  C#   G#
e|-----------------------------------------------------------------|
B|-----------------------------------------------------------------|
G|---------5-5-5-5---------8-8-8-8---------6-6-6-6-8-8-6-6---------|X3
D|-6-6-6-6-5-5-5-5-6-6-6-6-8-8-8-8-6-6-6-6-6-6-6-6-8-8-6-6-6-6-6-6-|
A|-6-6-6-6-3-3-3-3-6-6-6-6-6-6-6-6-6-6-6-6-4-4-4-4-6-6-4-4-6-6-6-6-|
E|-4-4-4-4---------4-4-4-4---------4-4-4-4-----------------4-4-4-4-|

Iím takiní you out of my pillbox, I should report you to the F.D.A.
Thought I would die when you said goodbye, But I ainít been sick all day.

Used to be my private ďcure allĒ, a placebo for the brain.
You were fine but so unkind, I couldnít stand the pain.

   D#  C#  G#      C#  G#  A#            C#  C   G#
e|---------------------------------|    --------------------|
B|---------------------------------|    --------------------|
G|-8-8-6-6---------6-6-------------|X2  -6-6-5-5------------|
D|-8-8-6-6-6-6-6-6-6-6-6-6-8-8-8-8-|    -6-6-5-5------------|
A|-6-6-4-4-6-6-6-6-4-4-6-6-8-8-8-8-|    -4-4-3-3-6-6-6-6----|
E|---------4-4-4-4-----4-4-6-6-6-6-|    ---------4-4-4-4----|

Iím takiní you out of my pillbox, I should report you to the F.D.A.
Thought I would die when you said goodbye, But I ainít been sick all day
No I ainít been sick all day
[ Tab from: http://www.guitaretab.com/c/chelsea-smiles/88941.html ]
   G#       C      G#       D#     G#       C#     D#  C#   G#
e|-----------------------------------------------------------------|
B|-----------------------------------------------------------------|
G|---------5-5-5-5---------8-8-8-8---------6-6-6-6-8-8-6-6---------|X2
D|-6-6-6-6-5-5-5-5-6-6-6-6-8-8-8-8-6-6-6-6-6-6-6-6-8-8-6-6-6-6-6-6-|
A|-6-6-6-6-3-3-3-3-6-6-6-6-6-6-6-6-6-6-6-6-4-4-4-4-6-6-4-4-6-6-6-6-|
E|-4-4-4-4---------4-4-4-4---------4-4-4-4-----------------4-4-4-4-|

................................, you were all I had
I was strung out  and without a doubt, Iím not feeling so bad.

   D#  C#  G#      C#  G#  A#            C#  C   G#
e|---------------------------------|    --------------------|
B|---------------------------------|    --------------------|
G|-8-8-6-6---------6-6-------------|X2  -6-6-5-5------------|
D|-8-8-6-6-6-6-6-6-6-6-6-6-8-8-8-8-|    -6-6-5-5------------|
A|-6-6-4-4-6-6-6-6-4-4-6-6-8-8-8-8-|    -4-4-3-3-6-6-6-6----|
E|---------4-4-4-4-----4-4-6-6-6-6-|    ---------4-4-4-4----|

Iím takiní you out of my pillbox, I should report you to the F.D.A.
Thought I would die when you said goodbye, But I ainít been sick all day
No I ainít been sick all day

   G#       C      G#       D#     G#       C#     D#  C#   G#
e|-----------------------------------------------------------------|
B|-----------------------------------------------------------------|
G|---------5-5-5-5---------8-8-8-8---------6-6-6-6-8-8-6-6---------|X2
D|-6-6-6-6-5-5-5-5-6-6-6-6-8-8-8-8-6-6-6-6-6-6-6-6-8-8-6-6-6-6-6-6-|
A|-6-6-6-6-3-3-3-3-6-6-6-6-6-6-6-6-6-6-6-6-4-4-4-4-6-6-4-4-6-6-6-6-|
E|-4-4-4-4---------4-4-4-4---------4-4-4-4-----------------4-4-4-4-|


   D#  C#  G#      C#  G#  A#            C#  C   G#
e|---------------------------------|    --------------------|
B|---------------------------------|    --------------------|
G|-8-8-6-6---------6-6-------------|X2  -6-6-5-5------------|x8
D|-8-8-6-6-6-6-6-6-6-6-6-6-8-8-8-8-|    -6-6-5-5------------|
A|-6-6-4-4-6-6-6-6-4-4-6-6-8-8-8-8-|    -4-4-3-3-6-6-6-6----|
E|---------4-4-4-4-----4-4-6-6-6-6-|    ---------4-4-4-4----|

Iím takiní you out of my pillbox, I should report you to the F.D.A.
Thought I would die when you said goodbye, But I ainít been sick all day.
No I ainít been sick all day, No I ainít been sick all day
No I ainít been sick all day, No I ainít been sick all day