Song name
# A B C D E F G H I J K L M N O P Q R S T U V W X Y Z

Chelsea Wolfe - Pale On Pale tab

-------------------------------------------------------------------------------
                             Pale on Pale by Chelsea Wolfe
-------------------------------------------------------------------------------

I saw her play this live with my own eyes and I'm pretty sure what I've tabbed here is
correct; not 100% sure on the tuning, but she seems to play a lot of songs in D and it
sounds right to me. Feel free to give any input if you think it's different (I'm not 
great at identifying many alternate tunings). This is actually pretty easy to play, there's
only two progressions repeated throughout the song.

Tabbed by: Scott

Tuning: D stand. (DGCFAD)


Intro/Main Riff
e|----------------------------------|
B|----------------------------------|
G|----------------------------------|
D|---------2------------------------|
A|------------2-2-2-2-2-------------|
E|---3b-0---------------------------|


Bridge
e|----------------------------------|
B|---------1------------------------|
G|---------0---1-1-1-1-1------------|
D|---------2---2-2-2-2-2------------|
A|---------3---2-2-2-2-2------------|
E|---3b-0---------------------------|


Lyrics:

When the light in your eyes goes out for the last time
When your hands are tied pale on pale and mind on mind
When your body is swollen with blood and ocean floor is swollen with sun
When the light in your eyes goes out for the last time
When your mind is open
Tap to rate this tab
# A B C D E F G H I J K L M N O P Q R S T U V W X Y Z