Song name
# A B C D E F G H I J K L M N O P Q R S T U V W X Y Z

Chelsea Wolfe - Boyfriend tab

Artist: Chelsea Wolfe
Album: Unknown Rooms: A Collection of Acoustic Songs
Song: "Boyfriend"

Tuning: Standard (Which is uncommon for Chelsea...)



Main riff
e|-----------------------------------------------------------------|
B|-----------------------------------------------------------------|
G|---------0-------------------------------------------------------|
D|--------------------2p0----------------0-------------------------|
A|----------------3------------------------------2-----------------|
E|----0------------------------------3--------2----0---------------|



Pre-chorus
e|-----------------------------------------------------------------|
B|------1~-----------0--0--0--------0------------------------------|
G|------0~-----------0--2--4--------0------------------------------|
D|------2~-----------------------------------2~--------------------|
A|-------------------------------------------2~--------------------|
E|-------------------------------------------0~--------------------|



(The guitar kinda plays this over the synth part..)
e|-----------------------------------------------------------------|
B|-----------------------------------------------------------------|
G|-----------------------------------------------------------------|
D|------2----------------------------------------------------------|
A|------------2-------2--------------------------------------------|
E|----------------------------2------------------------------------|

(...but the entire synth part fills in as:)
e|-----------------------------------------------------------------|
B|-----------------------------------------------------------------|
G|--------------------0--------------------------------------------|
D|-----2---0---2-----------------4-------4-------------------------|
A|---------------2-----------2-------------------------------------|
E|---------------------------------3-2-----------------------------|
Tap to rate this tab
# A B C D E F G H I J K L M N O P Q R S T U V W X Y Z