Song name
# A B C D E F G H I J K L M N O P Q R S T U V W X Y Z

Chelsea Wolfe - Tracks Tall Bodies tab

Tracks (Tall Bodies) - Chelsea Wolfe - From Ἀποκάλυψις

Tuning: Whole Step down - D G C F A D


Opening/Riff 1

Guitar one
e|---------------------------------------------------------------------------|
B|---------------------------------------------------------------------------|
G|---------------------------------------------------------------------------|
D|---------------------------------------------------------------------------|
A|--2/4-----2/4-----2/4-----2/4-----2/4-----2/4-----2/4-----2/4-----2/4------|
E|------5-------5-------5-------5-------5-------5-------5-------5-------5----|

Guitar two
e|---------------------------------------------------------------------------|
B|---------------------------------------------------------------------------|
G|---------------------------------------------------------------------------|
D|----------------------7---------------7---------------7---------------7----|
A|--------------4-------4-------4-------4-------4-------4-------4-------4----|
E|--------------5-------5-------5-------5-------5-------5-------5-------5----|


This repeats until 0:50 when...

Riff 2 (over the top of Riff 1)
e|-------------------------------------|
B|-------------------------------------|
G|-------------------------------------|
D|------------7-6-------------7-6------|
A|--------7-4-----7-4-----7-4-----7-4--|
E|--5-7-4-------------7-4--------------|


After that Riff 1 repeats alone until 1:40 when both guitars follow this:

e|------------4~---4~-----------4~---4~--|
B|------------5~---5~-----------5~---5~--|
G|------------6~---6~-----------6~---6~--|
D|------------6~---6~-----------6~---6~--|
A|----------4-4~-4-4~---------4-4~-4-4~--|
E|--5-5-5-5-----------5-5-5-5------------|
(To get the vibrato, play the chord followed by one big push/release on the whammy bar)


Chelsea wails over this for a while until 2:45 when...

Riff 2 (Both guitars)
e|-------------------------------------|
B|-------------------------------------|
G|-------------------------------------|
D|------------7-6-------------7-6------|
A|--------7-4-----7-4-----7-4-----7-4--|
E|--5-7-4-------------7-4--------------|


Until 3:11 when Guitar two changes to this:

(Same pace)
e|-----------------------------------------------------------------|
B|-----------------------------------------------------------------|
G|-----------------------------------------------------------------|
D|-------------------------------------7/9/7--6/7/6----------------|
A|-----------------------7/9/7--4/7/4----------------7/9/7--4/7/4--|
E|--5/7/5--7/9/7--4/5/4--------------------------------------------|

e|--------------------------------------|
B|--------------------------------------|
G|--------------------------------------|
D|-------------------------------9-6----|
A|----------------7/9/7--4/7/4-7--------|
E|--7/9/7--4/5/4---------------------5--|

After that, simply return to Riff 1 until the end.

FIN
Tap to rate this tab
# A B C D E F G H I J K L M N O P Q R S T U V W X Y Z