Song name
# A B C D E F G H I J K L M N O P Q R S T U V W X Y Z

Chelsea Wolfe - Moses tab

Chelsea Wolfe - Moses

tuning: standard



e|-----------------|-----------------|
B|-----------------|-----------------|
G|-5-5-----2-2-2-2-|-5-5-----2-2-2-2-|
D|-5-5-2-5-2-2-2-2-|-5-5-2-5-2-2-2-2-|
A|-3-3-2-5-0-0-0-0-|-3-3-2-5-0-0-0-0-|
E|-----0-3---------|-----0-3---------|



e|-----------------|-----------------|
B|-----------------|-----------------|
G|-5-5-----2-2-2-2-|-5-5-----2-2-2-2-|
D|-5-5-2-5-2-2-2-2-|-5-5-2-5-2-2-2-2-|
A|-3-3-2-5-0-0-0-0-|-3-3-2-5-0-0-0-0-|
E|-----0-3---------|-----0-3---------|

yeah, that's all
Tap to rate this tab
 
# A B C D E F G H I J K L M N O P Q R S T U V W X Y Z