Song name
# A B C D E F G H I J K L M N O P Q R S T U V W X Y Z

Chelsea - Right To Work tab

-----------------------------------------------------------------
Right To Work - Chelsea
-----------------------------------------------------------------
Tabbed by: Dillon
Email: Angelic_oioi_upstart@yahoo.com

Tuning:Standard

Intro:
e|---------------------------------------------------------------|
B|---------------------------------------------------------------|
G|-12------------------------------------------------------------|
D|-12--(hit this chord as many times as needed)------------------|
A|-10------------------------------------------------------------|
E|---------------------------------------------------------------|

Verse And Chorus:
e|---------------------------------------------------------------|
B|---------------------------------------------------------------|
G|----------------7777-------------------------------------------|
D|-77-10101010-77-7777-------------------------------------------|
A|-77-10101010-77-5555-------------------------------------------|
E|-55--8-8-8-8-55------------------------------------------------|

Bridge/Solo:
e|---------------------------------------------------------------|
B|---------------------------------------------------------------|
G|-44444444------------------777777777-5-4444-----------12(as----|
D|-44444444-55555555-(1 time)777777777-5-4444-(3 times)-12-many--|
A|-22222222-55555555---------555555555-3-2222-----------10-times-|
E|----------33333333--------------------------------------needed)|

End:
e|---------------------------------------------------------------|
B|---------------------------------------------------------------|
G|-12------------------------------------------------------------|
D|-12-(as many times as needed)----------------------------------|
A|-10------------------------------------------------------------|
E|---------------------------------------------------------------|

| / slide up
| \ slide down
| h hammer-on
| p pull-off
| ~ vibrato
| + harmonic
| x Mute note

#----------------------------------PLEASE NOTE---------------------------------#
#This file is the author's own work and represents their interpretation of the #
#song. You may only use this file for private study, scholarship, or research. #
#------------------------------------------------------------------------------#
Tap to rate this tab
# A B C D E F G H I J K L M N O P Q R S T U V W X Y Z