Song name
# A B C D E F G H I J K L M N O P Q R S T U V W X Y Z

Chemical Brothers - Galvanize tab

This is the intro/main riff throughout the song including the sweet violin...

-------------------------------------------|l
-------------------------------------------|l
-10---10---12------------------------------|l
-10---10---12------------------------------|l
-8-----8---10------------------------------|l
-------------------------------------------|l

-------------------------------------------------------------------|l
---------------13--------------------------------------------------|l
--12---14---------15--15--14--15--12--14---------------------------|l
------------------------------------------------------15-----------|l
-------------------------------------------------------------------|l
-------------------------------------------------------------------|l
Tap to rate this tab
 
# A B C D E F G H I J K L M N O P Q R S T U V W X Y Z