Guitaretab - guitar tabs
Song name
# A B C D E F G H I J K L M N O P Q R S T U V W X Y Z

Chemical Nova - Tragedies tab

Song - Tragedies
Band  Chemical Nova
Music by  Jeremy Ten Hoopen

Guitar Solo:

     E  E  E  E  E  E  E  E     Q    Q    Q    Q     
E||--------------------------|----------------------|
B||--4--5--------------------|----------------------|
G||--------6--4--6-----------|----------------------|
D||-----------------6--4--6--|----------------------|
A||--------------------------|--7----4----6---------|
E||--------------------------|-----------------4----|

   S  S  S  S  S  S  S  S  S  S  S  S  S  S  S  S    Q    Q    Q    Q     
--------------------------------------------------|----------------------|
--12----------------------------------------------|----------------------|
--13-------------------------------------16-------|----------------------|
-----14-13-14-16----------------------------18----|----------------------|
-----------------14-16----------14-16-18-------19-|--7----4----6---------|
-----------------------14-16-17-------------------|-----------------4----|


  S S S S Q    S S S S Q       S S S S S S S S S S S  S S S S S  
----------------------------|-----------------------------------|
--------9-7----------9------|--------9-7----------------------7-|
------8------------8---6----|------8-----6-8-9-----9--------8---|
--6-7----------6-7----------|--6-7-------------7-9---11---9-----|
----------------------------|---------------------------9-------|
----------------------------|-----------------------------------|


  S S S S S S S S S S S  S S S S S    S S S S S S S S S S S  S S  S  S  S    W                 
-----------------------------------|--------------------------------------|-------------------|
--------9-7----------------------7-|------------------------10------12----|--9----------------|
------8-----6-8-9-----9--------8---|------8-------------8-9------11-------|-------------------|
--6-7-------------7-9---11---9-----|--6-7-------7-4-6-7--------9-------11-|-------------------|
---------------------------9-------|--------6-7---------------------------|-------------------|
-----------------------------------|--------------------------------------|-------------------|



  W                   W                   W                  
-------------------|-------------------|--7----------------||
--5----------------|--9----------------|-------------------||
-------------------|-------------------|-------------------||
-------------------|-------------------|-------------------||
-------------------|-------------------|-------------------||
-------------------|-------------------|-------------------||


Bass Solo:
[ Tab from: http://www.guitaretab.com/c/chemical-nova/187146.html ]
     S  S  S S  S  S S  S  S S  S  S S  S  S S     S  S  S  S  S  S  S  S  S  S  S  S  S  S  S  S  
G||------------------------------------11------|--11----------------------------------------------|
D||--------------------11------11----9----11-9-|-----11-13----15-16----18-------------20-21----23-|
A||----11------11----9----11-9----11-----------|-----------14-------16-------20----18-------21----|
E||--9----11-9----11---------------------------|--------------------------18----19----------------|

   W                    S  S  S  S  S  S  S  S  S  S  S  S  S  S  S  S     Q     Q     Q     Q     
--------------------|--------------------------------------------------|--------------------------|
--------------------|--23-21-20-21-20-18-20-18-16-18-16-15-16-15-13-15-|--13----11----------15----|
--23----------------|--------------------------------------------------|--------------14----------|
--------------------|--------------------------------------------------|--------------------------|

   W                    E   E   E   E   E   E   E   E   
--------------------|----------16----------15----------|
--13----------------|------15----------15--------------|
--------------------|--14----------14----------13--14--|
--------------------|----------------------------------|


   S  S  S  S  S  S  S  S  S  S  S  S  S  S  S  S     Q     Q     Q     Q        W                 
--------------------------------------------------|--------------------------|--------------------|
--23-21-20-21-20-18-20-18-16-18-16-15-16-15-13-15-|--13----11----------15----|--13----------------|
--------------------------------------------------|--------------14----------|--------------------|
--------------------------------------------------|--------------------------|--------------------|

   Q     Q     Q     Q       S S S S S S S S S S S S S S E          
--------------------------|--------------8-6-8--------------|-----||
--------------------------|--------9-8-6-------9-------6----|-----||
--11----13----14----16----|--9-8-6---------------8----------|-----||
--------------------------|------------------------7-6------|-----||


Duration Legend
---------------
W - whole
H - half
Q - quarter
E - 8th
S - 16th
T - 32nd
X - 64th
. - note dotted
|-n-|  - n-tuplets


Tablature Legend
----------------
L - tied note
x - dead note
g - grace note
(n) - ghost note
> - accentuded note
NH - natural harmonic
AH - artificial harmonic
TH - tapped harmonic
SH - semi harmonic
PH - pitch harmonic
h - hammer on
p - pull off
b - bend
br - bendRelease
pb - preBend
pbr - preBendRelease
brb - bendReleaseBend
\n/ - tremolo bar dip
\n - tremolo bar dive
-/n - tremolo bar Release up
/n\ - tremolo bar inverted dip
/n - tremolo bar return
-\n - tremolo bar Release down
S - shift slide
s - legato slide
/ -  slide into from below or out of upwards
\ -  slide into from above or out of downwards
~ - vibrato
W - wide vibrato
tr - trill
TP - tremolo picking
T - tapping
S - slap
P - pop
< - fade in
^ - brush up
v - brush down

www.chemicalnova09.piczo.com