Song name
# A B C D E F G H I J K L M N O P Q R S T U V W X Y Z

Chemical Vocation - Michael The Nuuk tab

Title: Michael The Nuuk
Artist: Chemical Vocation


Riff 1
    D        Em7
e|------------------|
B|--3~-------3~-----|
B|--2~-------0~-----|
D|--0~-------x~-----|
A|-----------2~-----|
E|------------------|

Riff 2 (can play with powerchords too)

    A              Bm             G              F#
e|-----------------2-2-2-2-2-2-2--3-3-3-3-3-3-3-----------------|
B|--2-2-2-2-2-2-2--3-3-3-3-3-3-3--3-3-3-3-3-3-3--2-2-2-2-2-2-2--|
G|--2-2-2-2-2-2-2--4-4-4-4-4-4-4--0-0-0-0-0-0-0--3-3-3-3-3-3-3--|
D|--2-2-2-2-2-2-2--4-4-4-4-4-4-4--0-0-0-0-0-0-0--4-4-4-4-4-4-4--|  x2
A|--0-0-0-0-0-0-0--2-2-2-2-2-2-2--2-2-2-2-2-2-2--4-4-4-4-4-4-4--|
E|--------------------------------3-3-3-3-3-3-3--2-2-2-2-2-2-2--|

and that's pretty much all of the song! It's some parts I can't figure out, so if you 
something, write it in the comments! :)
Enjoy!
Tap to rate this tab
# A B C D E F G H I J K L M N O P Q R S T U V W X Y Z