Song name
# A B C D E F G H I J K L M N O P Q R S T U V W X Y Z

Chemical Vocation - Song For Her tab

This song was dedicated to Becky Ogle who is the most awesome person alive. She's the 
friend and I don't know what i'd do without her. I love her to death. She's my #1 homie n 
number 1 friend. I hope you enjoy this tab. Note: solo will be tabbed seperately.
                  DGCFAD
             X2                     X2
-0---5---7---8--|---0-2---3--5----------|
---0---0---0---0|-------0---0--0--------|
----------------|-----------------------|
----------------|-----------------------|
----------------|-----------------------|
-0--------------|-0---------------------|
             X2
-0---5---7---8--|--0-2---3--5-----------|
---0---0---0---0|------0---0--0---------|
----------------|-----------------------|
----------------|-----------------------|
----------------|-----------------------|
-0--------------|-0---------------------|

--0-2---3---5---7---5---3---2h3p2-------|
------0---0---0---0---0---0--------3p0--|
----------------------------------------|
----------------------------------------|
----------------------------------------|
-0--------------------------------------|

-------3-2-2-2h3-2-----------------------|
-3-----3-0---------3-3--3p2~p0h2---------|
-----2---------------3-------------------|
----2----------------2-------------------|
---0--------------------2----------------|
-2---------------------------------------|

-------3-2-2-2h3-2--------0-----3----2-----|
-3-----3-0---------3--3-----3-----3----3---|
-----2-----------------0-0----0-----0---0--|
----2-------------------0------------------|
---0------------------2--------------------|
-2-----------------------------------------|

-0----2-----------------------------------|
---3----3---------------------------------|
-----0----0-------------------------------|
------------------------------------------|
------------------------------------------|
------------------------------------------|

-------3-2-2-2h3-2-------------3p2~p0-----|
-3-----3-0---------3-3--3p2~p0------------|
-----2---------------3--------------------|
----2----------------2--------------------|
---0--------------------2-----------------|
-2----------------------------------------|

-------3-2-2-2h3-2--------0----0----2------|
-3-----3-0---------3-3------3----3----3----|
-----2----------------0-0-----0----0----0--|
----2------------------0-------------------|
---0-----------------2---------------------|
-2-----------------------------------------|

-0-----2----3----2----3-----5----3-----2h3p2--|
---3-----3----3----3----3-----3----3----------|
-----0-----0----0----0----0-----0----0--------|
----------------------------------------------|
----------------------------------------------|
----------------------------------------------|
                                       X2
-0-------2------3-----5---3-----------------|
---0--0----0--0---0-0---0---0---------------|
-----0-------0-----0------------------------|
--------------------------------------------|
--------------------------------------------|
-2-------3------3-----3---------------------|

-2------3-------5-------7---5---------------|
---0--0---0---0---0---0---0---0-------------|
-----0------0-------0-----------------------|
-0------2-------4-------5-------------------|
--------------------------------------------|
--------------------------------------------|
Play verse, then chorus, then verse then chorus, then solo, then
chorus, thenending which will also be posted with the solo.
Tap to rate this tab
# A B C D E F G H I J K L M N O P Q R S T U V W X Y Z