Song name
# A B C D E F G H I J K L M N O P Q R S T U V W X Y Z

Cher Lloyd - Want You Back tab

I was just searching for this and couldn't find a tab so I decided I would put one out 
there. I'm new to electric guitar so all of my terms might not be correct so just bear 
with me ^.^

Capo: 2 (i'm naming the fret numbers the actual numbers not changing them because of 
that capo if that makes any sense)

(Intro and Verse)
e|--------------------------------------|
B|--------------------------------------|
G|--------------------------------------|
D|--12--12-------12--12-------12--------|
A|--12--12-------12--12-------12--------|
D|--12--12-------12--12-------12--------|   x2

e|------------------------------------------------------|
B|------------------------------------------------------|
G|------------------------------------------------------|
D|--5------7--7------7--7-----7------7--7-----7-----5---|
A|--5------7--7------7--7-----7------7--7-----7-----5---|
D|--5------7--7------7--7-----7------7--7-----7-----5---|

                                           REPEAT THAT CHUNK UNTIL CHORUS

(Chorus)
e|------------------------------------------------------------|
B|------------------------------------------------------------|
G|------------------------------------------------------------|
D|--12=====12====5--7=====7======7==========3-----------------|
A|--12=====12====5--7=====7======7==========3-----------------|
D|--12=====12====5--7=====7======7==========3-----------------|

REPEAT UNTIL END OF CHORUS


i think that's right. I used the chords and stuff to make the tab soooo i hope it's helpful ^.^
Tap to rate this tab
# A B C D E F G H I J K L M N O P Q R S T U V W X Y Z