Song name
# A B C D E F G H I J K L M N O P Q R S T U V W X Y Z

Cher Lloyd - Over The Moon tab

Song: Over The Moon
Artist: Cher Lloyd
Album: Sticks and Stones

I haven't figured out the verse of the song. I don't think its possible to play it 
since it sound all computer. So here's the chorus:

     (Barre your index finger across the 2nd fret on the Bm chord)
  G  Bm  C
|-3--2---0-|
|-3--3---1-|
|-0--4---0-|
|-0--4---2-|
|-2--2---3-|
|-3--------|

G                  Bm              C
I'm over the moon, doing my thing, doing my thing

G                  Bm                   C
I'm over the moon, just doing my thing, doing my thing

G                       Bm                               C                       
And I can't get enough, life is feeling so good 'cause I keep moving up

G                  Bm              C
I'm over the moon, doing my thing, and I won't come down

Here is the vocal melody tab. This tab is the pitch of her voice if you need it.

|---------5-3---5-5-5-2----3-3-3-0-----------5-3---5-5-5-2---3-3-3-0-|
|-0-0-1-3----------------------------0-0-1-3-------------------------|
|--------------------------------------------------------------------|
|--------------------------------------------------------------------|
|--------------------------------------------------------------------|
|--------------------------------------------------------------------|

|-3-5-7~~~3---3-5-7~~~3---3-5-7---8-7-5---3-5-7---8-7-5---3----------|
|--------------------------------------------------------------------|
|--------------------------------------------------------------------|
|--------------------------------------------------------------------|
|--------------------------------------------------------------------|
|--------------------------------------------------------------------|

|---------5-3---5-5-5-2----5-5-5---5---5-----------------------------|
|-0-0-1-3------------------------------------------------------------|
|--------------------------------------------------------------------|
|--------------------------------------------------------------------|
|--------------------------------------------------------------------|
|--------------------------------------------------------------------|
Tap to rate this tab
 
# A B C D E F G H I J K L M N O P Q R S T U V W X Y Z