Cherbourg - Let Yourself Love tab

-----------------------------------------------------------------------------
      LET YOURSELF LOVE (Acoustic) - Cherbourg (www.cherbourgmusic.com)
-----------------------------------------------------------------------------
Tabbed by: Alice Stedman

Tuning: EADGBe(Capo 5th Fret)

MAIN RIFF (Repeat until chorus):
e|--------------------------------------------------------------------------|
B|-----1-----------1-----------1-----------3--------------------------------|
G|-----------2-----------2-----------2-----------2--------------------------|
D|--------------------------------------------------------------------------|
A|--0-----0-----0-----0-----0-----0-----0-----0-----------------------------|
E|--------------------------------------------------------------------------|

e|--------------------------------------------------------------------------|
B|-----0-----------0-----------0-----------0--------------------------------|
G|-----------0-----------0-----------0-----------0--------------------------|
D|--------------------------------------------------------------------------|
A|--------------------------------------------------------------------------|
E|--3-----3-----3-----3-----3-----3-----3-----3-----------------------------|


e|--------------------------------------------------------------------------|
B|-----0-----------0-----------0-----------0--------------------------------|
G|-----------0-----------0-----------0-----------0--------------------------|
D|--------------------------------------------------------------------------|
A|--------------------------------------------------------------------------|
E|--1-----1-----1-----1-----3-----3-----3-----3-----------------------------|

e|--------------------------------------------------------------------------|
B|-----1-----------1-----------1-----------1--------------------------------|
G|-----------2-----------2-----------2-----------2--------------------------|
D|--------------------------------------------------------------------------|
A|--0-----0-----0-----0-----0-----0-----0-----0-----------------------------|
E|--------------------------------------------------------------------------|


CHORUS CHORDS:

  Let yourself love,   let yourself love,   let yourself be loved
e|-----------------0--------------------0-----------------------0---------|
B|-----------------1--------------------0-----------------------1---------|
G|-----------------2--------------------0-----------------------2---------|
D|-----------------2--------------------0-----------------------2---------|
A|-----------------0--------------------2-----------------------0---------|
E|--------------------------------------3---------------------------------|


After chorus (electric guitar comes in)
Piano riff:

e|--1---0-------1---0----------|
B|-----------------------------|
G|----------2-----------2------|
D|-----------------------------|
A|-----------------------------|
E|-----------------------------|

Then play main riff again until the electric guitar solo, when I like to play chords - 
but you can carry on with the riff as Andrew Davie does in the song:

e|---0---------0---------0---------0---------0------------------------------|
B|---1---------0---------0---------0---------1------------------------------|
G|---2---------0---------0---------0---------2------------------------------|
D|---2---------0---------0---------0---------2------------------------------|
A|---0---------2---------0---------2---------0------------------------------|
E|-------------3---------1---------3----------------------------------------|
  (8 beats) (8 beats) (4 beats) (4 beats) (8 beats)

Then back to main riff and chorus chords.

And that's it. I think the main riff is about right, I watched a live video and this 
seems to be what he plays. Anyway, brilliant song, so enjoy!
Tap to rate this tab
 
# A B C D E F G H I J K L M N O P Q R S T U V W X Y Z