Song name
# A B C D E F G H I J K L M N O P Q R S T U V W X Y Z

Cherri Bomb - Shake The Ground tab

Artist: Cherri Bomb
Album: This Is The End Of Control
Tuning: Standard

I just might end up tabbing their whole EP and album :3 

Intro

e|--------------------------------------|
B|--------------------------------------|
G|--------------------------------------| (x2)
D|----4-------4------4---------2--------|
A|---------------------2-0-2-4---4-2-0--|
E|--2~---2-2-2---2~-2-------------------|

Verse 1

e|-----------------------------------------------|
B|-----------------------------------------------|
G|--4~--4~--9------------------------------------| (x2)
D|--4~--4~--9---4-------4-----4---------2--------|
A|--2~--2~--7-------------------2-0-2-4---4-2-0--|
E|------------2---2-2-2---2~-2-------------------|

Chorus (there are two different ways to play the chorus, this is the way I play it)

e|---------------------------------------------------------------|
B|---------------------------------------------------------------|
G|--7777777777777-----------------9999999999999------------------| (x2)(on the second time,
D|--7777777777777--7-77777777777--9999999999999--9-99999999--11--| don't play the last
A|--5555555555555--7-77777777777--7777777777777--9-99999999--11--|       chord)
E|-----------------5-55555555555-----------------7-77777777--9---|

or you can play it like this (whichever floats your boat :D)

e|-----------------------------------------------------------|
B|-----------------------------------------------------------|
G|--77777777777--2-2222222222--99999999999--4-4444444444--6--|
D|--77777777777--2-2222222222--99999999999--4-4444444444--6--|
A|--55555555555--0-0000000000--77777777777--2-2222222222--4--|
E|-----------------------------------------------------------|

There's also this little bit playing in the chorus

e|-----------------------------|                         |-------------|
B|--6~-6-4------8~-8~-8-6------|                         |-------------|
G|---------6-5~-----------8-7~-| you do that twice, then |----2-4h5p4~-|
D|-----------------------------|                         |--3----------|
A|-----------------------------|                         |-------------|
E|-----------------------------|                         |-------------|

repeat intro

repeat verse

repeat chorus

Bridge (you can also play this part two different ways, this is the way i play it)

e|------------------------44--44--------------------------------|x3)(on the last two times,
B|--------------------------------------------------------------|
G|--------------------------------------------------------------| ( complete the chord.
D|--------------------------------------------------7--9--9--9--|       as in, |-9-| and such)
A|--4--7--9--10--9--7--4--44444444--4--7--9--10--9--5--7--7--7--|              |-9-|
E|--2--5--7--8---7--5--2--22222222--2--5--7--8---7--------------|              |-7-|

repeat chorus

Outro

e|-------------------------|
B|-------------------------|
G|-------------------------|
D|--4--7--9--10--9--7--4~--|
A|--2--5--7--8---7--5--4~--|
E|--2--5--7--8---7--5--2~--|

any corrections or comments, please comment :) keep on rockin!
Tap to rate this tab
 
# A B C D E F G H I J K L M N O P Q R S T U V W X Y Z