Song name
# A B C D E F G H I J K L M N O P Q R S T U V W X Y Z

Cherri Bomb - Raw Real tab

Raw. Real. by Cherri Bomb

verse
e|---------------------------------|
B|---------------------------------|
G|---------------------------------|   this is repeated through out the verse
D|-2---2---2---2---2---2---2---2---|
A|-2---2---2---2---2---2---2---2---|
E|-0---0---0---0---0---0---0---0---|

on the last line of the verse the same notes are played but faster.

chorus
e|--------------------------------------------------------------------------------|
B|--------------------------------------------------------------------------------|
G|--------------------------------------------------------------------------------|
D|10-10-10-10-10-10-10-10-5-5-5-5-5-5-5-5-12-12-12-12-12-12-12-12-12-12-----------|
A|10-10-10-10-10-10-10-10-5-5-5-5-5-5-5-5-12-12-12-12-12-12-12-12-12-12-----------|
E|8--8--8--8--8--8--8--8--3-3-3-3-3-3-3-3-10-10-10-10-10-10-10-10-10-10-0-2-3-2-0-|

e|--------------------------------------------------------------------------------------|
B|--------------------------------------------------------------------------------------|
G|--------------------------------------------------------------------------------------|
D|10-10-10-10-10-10-10-10-5-5-5-5-5-5-5-5-12-12-12-12-12-12-12-12-12-12-12-12-12-12-9-9-|
A|10-10-10-10-10-10-10-10-5-5-5-5-5-5-5-5-12-12-12-12-12-12-12-12-12-12-12-12-12-12-9-9-|
E|8--8--8--8--8--8--8--8--3-3-3-3-3-3-3-3-10-10-10-10-10-10-10-10-10-10-10-10-10-10-7-7-|

e|------------------------------------------------------------|
B|------------------------------------------------------------|
G|------------------------------------------------------------|
D|10-10-10-10-10-10-10-10-5-5-5-5-5-5-5-5-7-7-7-7-12-12-12-12-|
A|10-10-10-10-10-10-10-10-5-5-5-5-5-5-5-5-7-7-7-7-12-12-12-12-|
E|8--8--8--8--8--8--8--8--3-3-3-3-3-3-3-3-5-5-5-5-10-10-10-10-|

e|---------------------------------|
B|---------------------------------|
G|-5---5---5---5---5-5-5-5-5-7-7-9-|
D|-5---5---5---5---5-5-5-5-5-7-7-9-|
A|-3---3---3---3---3-3-3-3-3-5-5-7-|
E|---------------------------------|

after this it is straight back into the verse...
e|---------------------------------|
B|---------------------------------|
G|---------------------------------| 
D|-2---2---2---2---2---2---2---2---|
A|-2---2---2---2---2---2---2---2---|
E|-0---0---0---0---0---0---0---0---|

chorus
e|--------------------------------------------------------------------------------|
B|--------------------------------------------------------------------------------|
G|--------------------------------------------------------------------------------|
D|10-10-10-10-10-10-10-10-5-5-5-5-5-5-5-5-12-12-12-12-12-12-12-12-12-12-----------|
A|10-10-10-10-10-10-10-10-5-5-5-5-5-5-5-5-12-12-12-12-12-12-12-12-12-12-----------|
E|8--8--8--8--8--8--8--8--3-3-3-3-3-3-3-3-10-10-10-10-10-10-10-10-10-10-0-2-3-2-0-|

e|--------------------------------------------------------------------------------------|
B|--------------------------------------------------------------------------------------|
G|--------------------------------------------------------------------------------------|
D|10-10-10-10-10-10-10-10-5-5-5-5-5-5-5-5-12-12-12-12-12-12-12-12-12-12-12-12-12-12-9-9-|
A|10-10-10-10-10-10-10-10-5-5-5-5-5-5-5-5-12-12-12-12-12-12-12-12-12-12-12-12-12-12-9-9-|
E|8--8--8--8--8--8--8--8--3-3-3-3-3-3-3-3-10-10-10-10-10-10-10-10-10-10-10-10-10-10-7-7-|

e|------------------------------------------------------------|
B|------------------------------------------------------------|
G|------------------------------------------------------------|
D|10-10-10-10-10-10-10-10-5-5-5-5-5-5-5-5-7-7-7-7-12-12-12-12-|
A|10-10-10-10-10-10-10-10-5-5-5-5-5-5-5-5-7-7-7-7-12-12-12-12-|
E|8--8--8--8--8--8--8--8--3-3-3-3-3-3-3-3-5-5-5-5-10-10-10-10-|

e|---------------------------------|
B|---------------------------------|
G|-5---5---5---5---5-5-5-5-5-7-7-9-|
D|-5---5---5---5---5-5-5-5-5-7-7-9-|
A|-3---3---3---3---3-3-3-3-3-5-5-7-|
E|---------------------------------|


(this is the bit I'm not 100% sure is right)      ^=pitch bend

e|---------------------------------------------------------|
B|---7-8---10^-8-10-12------------7-8---10^-8-10-12-15-17^-|
G|-9-----5-------------11-11^-7-9-----5--------------------|   x2
D|---------------------------------------------------------|
A|---------------------------------------------------------|
E|---------------------------------------------------------|


e|-----------------------|
B|-----------------------|
G|-----------------------|  
D|-2----10---5----4------|   x4
A|-2----10---5----4------|
E|-0----8----3----2------|

e|---------------------------------|
B|---------------------------------|
G|---------------------------------|   
D|-2-2--2-2--2-2--2-2-2-2----------|
A|-2-2--2-2--2-2--2-2-2-2----------|
E|-0-0--0-0--0-0--0-0-0-0----------|

e|--------------------------------------------------------------------------------|
B|--------------------------------------------------------------------------------|
G|--------------------------------------------------------------------------------|
D|10-10-10-10-10-10-10-10-5-5-5-5-5-5-5-5-12-12-12-12-12-12-12-12-12-12-----------|
A|10-10-10-10-10-10-10-10-5-5-5-5-5-5-5-5-12-12-12-12-12-12-12-12-12-12-----------|
E|8--8--8--8--8--8--8--8--3-3-3-3-3-3-3-3-10-10-10-10-10-10-10-10-10-10-0-2-3-2-0-|

e|--------------------------------------------------------------------------------------|
B|--------------------------------------------------------------------------------------|
G|--------------------------------------------------------------------------------------|
D|10-10-10-10-10-10-10-10-5-5-5-5-5-5-5-5-12-12-12-12-12-12-12-12-12-12-12-12-12-12-9-9-|
A|10-10-10-10-10-10-10-10-5-5-5-5-5-5-5-5-12-12-12-12-12-12-12-12-12-12-12-12-12-12-9-9-|
E|8--8--8--8--8--8--8--8--3-3-3-3-3-3-3-3-10-10-10-10-10-10-10-10-10-10-10-10-10-10-7-7-|

e|------------------------------------------------------------|
B|------------------------------------------------------------|
G|------------------------------------------------------------|
D|10-10-10-10-10-10-10-10-5-5-5-5-5-5-5-5-7-7-7-7-12-12-12-12-|
A|10-10-10-10-10-10-10-10-5-5-5-5-5-5-5-5-7-7-7-7-12-12-12-12-|
E|8--8--8--8--8--8--8--8--3-3-3-3-3-3-3-3-5-5-5-5-10-10-10-10-|

e|----------------------------------------------------------------|
B|----------------------------------------------------------------|
G|-5---5---5---5---5-5-5-5-5-7-7-9---9---9---9--------------------|
D|-5---5---5---5---5-5-5-5-5-7-7-9---9---9---9--------------------|
A|-3---3---3---3---3-3-3-3-3-5-5-7---7---7---7--------------------|
E|-------------------------------------------0--------------------|

my first tab, may not be completely correct but I think it sounds about right :)
Tap to rate this tab
 
# A B C D E F G H I J K L M N O P Q R S T U V W X Y Z