Song name
# A B C D E F G H I J K L M N O P Q R S T U V W X Y Z

Cherri Bomb - Sacrificial Lamb tab

Cherri Bomb - Sacrificial Lamb.

Tab by - Kretzuu (Youtube: azzianazzian)

Worked it out by ear and by watching their live show.

-----------------------------------------------------------------------------------
Tuning- Drop D


Main riff/Verse

e|--------------------------------------|
B|--------------------------------------|    8x
G|--------------------------------------|
D|--------------------------------------|
A|--------------------------------------|
D|-0-0-15-0-0-14-0-0-15-0-0-14-b3-3-3-3-|<- Strum while you bend

Pre-Chorus (Who, Who? You You.)
I prefer to play this on one string, you can play it on many strings, if you want to.)
e|------------------------------------------|
B|------------------------------------------|
G|-2-2-2-2-6-6-6-6-10-10-10-10-10-10-10-10--|  3x
D|------------------------------------------|
A|------------------------------------------|
D|------------------------------------------|

e|-----------------------------------------------------|
B|-----------------------------------------------------|
G|--14-14-14-14-14-11-11-11-11-14-14-14-14-14-14-14----|
D|-----------------------------------------------------|
A|-----------------------------------------------------|
D|-----------------------------------------------------|


Chorus

e|---------------------------------------|
B|---------------------------------------|
G|---------------------------------------|
D|-----------------3-3-3-7-7-10-10-------|              
A|---------------------------------------|
D|--5-3-5-6-5-3-0------------------------|
                                                       2x

e|---------------------------------------------|
B|---------------------------------------------|
G|---------------------------------------------|
D|---------------------------------------------|
A|-----------------5-5-5-5-4-4-4---------------|
D|--5-3-5-6-5-3-0------------------------------|



e|---------------------------------|
B|---------------------------------|
G|---------------------------------|
D|---------------------------------|
A|--3-3-3---3----------------------|
D|--3-3-3---3----------------------|

Riff/Verse
Pre-chorus
Chorus


After the second chorus you don't play the riff, you play this:

e|---------------------------------------|
B|---------------------------------------|
G|---------------------------------------|
D|---------------------------------------|
A|---------------8-8-8-7-7-7-5-----------|
D|-5-3-5-6-5-3-0-------------------------|


Bridge/Solo
Not a 100% sure about this one, please correct me if you know how this goes :)

e|----------------------------------------------------|
B|----------------------------------------------------|
G|----------------------------------------------------| 5x
D|----------------------------------------------------|
A|-0-0-3-0-9b-0-0-3-0-12b-0-0-3-0-15b-----------------|
D|-0-0-3-0-9b-0-0-3-0-12b-0-0-3-0-15b-----------------|


Silence.

Chorus
And you end it off with the little part that you play after the second chorus.
Tap to rate this tab
 
# A B C D E F G H I J K L M N O P Q R S T U V W X Y Z