Song name
# A B C D E F G H I J K L M N O P Q R S T U V W X Y Z

Cherri Bomb - Hold On tab

Ok so if you're here for only the solo, I'm sorry I don't have it haha.

Cherri Bomb - Hold On

Tab by: Kretzuu (youtube: azzianazzian)

Tuning- Standard

Worked it out by ear.

Intro/Verse/Chorus/Mostly everything

e|-----------------------------------------------|
B|-----------------------------------------------|
G|-----------------------------------------------|
D|-5---3-5---3-5---3-5-8---3-5---3-5---3-5-10----|
A|-5---3-5---3-5---3-5-8---3-5---3-5---3-5-10----|
E|-3---1-3---1-3---1-3-6---1-3---1-3---1-3-8-----|

After the first chorus

e|-----------------------------------------------|
B|-----------------------------------------------|
G|---5^-5^-5^-5^-5^-5^-5^-5^---------------------|
D|-----------------------------------------------|  2x
A|-----------------------------------------------|
E|-----------------------------------------------|

After the second chorus

e|-----------------------------------|
B|---5^-5^-5^-5^-5^-5^-5^-7^---------|
G|-----------------------------------|
D|-----------------------------------|
A|-----------------------------------|
E|-----------------------------------|

Oh and the little notes in the second verse go like this:

e|--12-13--12-13b-13b----|  e|-13b-13b--|
B|-----------------------|  B|----------|
G|-----------------------|  G|----------|
D|-----------------------|  D|----------|
A|-----------------------|  A|----------|
E|-----------------------|  E|----------|

Breakdown/Bridge

This is not the actual strumming, i just put it here to save space. And my time.
e|-------------------------------|
B|-------------------------------|
G|-------------------------------| 2x
D|-8-7-3-5---5-------------------|
A|-6-5-1-3-5-3-------------------|
E|---------3---------------------|


e|-------------------------------|
B|-------------------------------|
G|-------------------------------|
D|----------5----7-----8-----10--|
A|--0-0-0-0--0-0---0-0---0-0-----|
E|--0-0-0-0--0-0---0-0---0-0-----|

Solo: I HAVE ONLY GOT THE FIRST PART DOWN.
I have tried to figure out the second part for quite some time, with no luck, since I 
can't understand anything from it.
Hehe. I only maybe have the first note. (I'm just a really crappy guitarist)

If anyone knows the solo, please share the tabs x3! I will keep trying to figure it out!

e|-----------------------13----------------15b|
B|--15-------13-15-13------13-14--------------|
G|-----12-15----------12---------12-14b-12----|
D|--------------------------------------------|
A|--------------------------------------------|
E|--------------------------------------------|

During the solo
Not the actual strumming,  again.

e|-------------------------------|
B|-------------------------------|
G|-------------------------------|
D|--5-7-8-10----5---5------------|
A|--5-7-8-10--5-3-5-3------------|
E|--3-5-6-8---3---3--------------|

Then repeat the riff until the end.
Tap to rate this tab
# A B C D E F G H I J K L M N O P Q R S T U V W X Y Z