Song name
# A B C D E F G H I J K L M N O P Q R S T U V W X Y Z

Cherri Bomb - Couldnt Care Less tab

-------------------------------------------------------------------------------
                             Couldn't Care Less - Cherri Bomb
-------------------------------------------------------------------------------
Tabbed by: Kretzuu
Youtube: azzianazzian
Tuning:Drop D

This song has not been released yet, I worked it out by ear from their live
stream found here: http://www.youtube.com/watch?v=g7aSWKUpcLE&feature=g-upl
The song starts at 8:15

Main riff

e|---------------------------------------------------------------------------------|
B|---------------------------------------------------------------------------------|
G|---------------------------------------------------------------------------------|
D|---------------------------------------------------------------------------------|
A|-0-0-0-0-0-0-0--0-0-3-0-3-0-7-8-0-0-0-10-0-12--0-0-3-0-3-0-7-8-8-8-8-7-\-5-\-3---|
E|-0-0-0-0-0-0-0--0-0-3-0-3-0-7-8-0-0-0-10-0-12--0-0-3-0-3-0-7-8-8-8-8-7-\-5-\-3---|

e|---------------------------------------------------------------------------|
B|-4-/-14-\-4-/-13-15-13-11~--10-11-10-9~--8-10-8-6~--5-6-3------------------|
G|---------------------------------------------------------------------------|    2x
D|---------------------------------------------------------------------------|
A|---------------------------------------------------------------------------|
E|---------------------------------------------------------------------------|

Verse is the main riff palm muted (not the one on the one string)

Pre-chorus (not so sure about this one)
e|---------------------------------------------------------------------------|
B|---------------------------------------------------------------------------|
G|---------------------------------------------------------------------------|
D|---------------------------------------------------------------------------|    2x
A|--3-3-6-3-5-5-3-4-4-3-3-3-4-4-4-3-3-6-3-5-5-3-4-4-3-3-3-3-5-6-5-4-3--------|
E|--3-3-3-3-3-3-3-3-3-3-3-3-4-4-4-3-3-3-3-3-3-3-3-3-3-3-3-3-5-6-5-4-3--------|

Chorus is the main riff

Verse
Pre-chorus
Chorus

Bridge
e|---------------------------------------------------------------------------|
B|-5-6-5-6-8-6-5-6-5-6-5-6-8-6-5-6-5-6-5-6-8-6-5-6-5-6-5-6-8-6-5-6-----------|
G|---------------------------------------------------------------------------|
D|---------------------------------------------------------------------------|
A|---------------------------------------------------------------------------|
E|---------------------------------------------------------------------------|

e|---------------------------------------------------------------------------|
B|--10~--8~------------------------------------------------------------------|
G|----------7~---------------------------------------------------------------|
D|---------------------------------------------------------------------------|
A|---------------------------------------------------------------------------|
E|---------------------------------------------------------------------------|

e|---------------------------------------------------------------------------|
B|---------------------------------------------------------------------------|
G|---------------------------------------------------------------------------|
D|---------------------------------------------------------------------------|
A|-3-3-3-3-3-3-3-3-0-0-0-0-0-0-0-0-7-7-7-7-7-7-7-7-2-2-2-2-2-2-2-2-----------|
E|-3-3-3-3-3-3-3-3-0-0-0-0-0-0-0-0-7-7-7-7-7-7-7-7-2-2-2-2-2-2-2-2-----------|

e|---------------------------------------------------------------------------|
B|---------------------------------------------------------------------------|
G|-3-3-3-3-3-3-3-3-5-5-5-5-5-5-5-5-6-6-6-6-6-6-6-6-7-7-7-7-7-7-7-7-----------|
D|-3-3-3-3-3-3-3-3-5-5-5-5-5-5-5-5-6-6-6-6-6-6-6-6-7-7-7-7-7-7-7-7-----------|
A|-1-1-1-1-1-1-1-1-3-3-3-3-3-3-3-3-4-4-4-4-4-4-4-4-5-5-5-5-5-5-5-5-----------|
E|---------------------------------------------------------------------------|

Solo
e|----12br-10------------15br-13--------------12br-10-15~--12-13-15-17-16-17-|
B|-11--------10-8-8----8---------15br-15br-11--------------------------------|
G|------------------10-------------------------------------------------------|
D|---------------------------------------------------------------------------|
A|---------------------------------------------------------------------------|
E|---------------------------------------------------------------------------|

e|-18-17-18-19-18-19-20-19-20-20br-16b---------------------------------------|
B|---------------------------------------------------------------------------|
G|---------------------------------------------------------------------------|
D|---------------------------------------------------------------------------|
A|---------------------------------------------------------------------------|
E|---------------------------------------------------------------------------|

Chorus

Outro
e|---------------------------------------------------------------------------|
B|---------------------------------------------------------------------------|
G|---------------------------------------------------------------------------|
D|---------------------------------------------------------------------------|
A|-7-7-7b-7-7-7-7-7b-7-7-7-7-7b-7-7-7-7-7b-----------------------------------|
E|-7-7-7b-7-7-7-7-7b-7-7-7-7-7b-7-7-7-7-7b-----------------------------------|

e|-11-11-11-11-11-11-11-11-11-11-11-11---------------------------------------|
B|-11-11-11-11-11-11-11-11-11-11-11-11---------------------------------------|
G|---------------------------------------------------------------------------|
D|---------------------------------------0--------0--------------------------|
A|---------------------------------------0--------0--------------------------|
E|---------------------------------------0--------0--------------------------|
Something like that, just go apesh** on the outro!


************************************

| /   slide up
| \   slide down
| h   hammer-on
| p   pull-off
| ~   vibrato
| +   harmonic
| x   Mute note
| b   Bend
| pb  Pre-bend
| br  Bend release
| pbr Pre-bend release
| brb Bend release bend

************************************
Tap to rate this tab
 
# A B C D E F G H I J K L M N O P Q R S T U V W X Y Z