Song name
# A B C D E F G H I J K L M N O P Q R S T U V W X Y Z

Cherri Bomb - Spin tab

All rights belong to Cherri Bomb

Song:   Spin
Band:   Cherri Bomb
Tuning: Drop D

Tabbed By: JasperLight

'~' = let ring
'x' = mute note

Intro: (just play this till the verse begins)
Palm mute all notes throughout the intro
E|-----------------------------------------------------|
B|-----------------------------------------------------|
G|-----------------------------------------------------|
D|-----------------------------------------------------|
A|-----------------------------------------------------|
D|-3-4-0-0--3-4-0-0--3-4-0-0--3-4-0-0------------------|


Verse:
Palm Mute only the '3-4-0-0' parts
E|----------------------------------------------------------------------|
B|----------------------------------------------------------------------|
G|------------------------------------------------------------7~-----5~-|
D|----------------------------------------------------------5~~~---3~~~-|
A|-------------------------------------------------------3~~~~~~-1~~~~~-|
D|-3-4-0-0--3-4-0-0--3-4-0-0--3-4-0-0--3-4-0-0--3-4-0-0-----------------|


Pre-Chorus:

E|--------------------------------------------------------|
B|--------------------------------------------------------|
G|--------------------------------------------------------|
D|-5-3-5--5--5-5-5-3-5--5--5-5-5-3-5--5--5--6-6-6--1-1-1--|
A|-5-3-5--5--5-5-5-3-5--5--5-5-5-3-5--5--5--6-6-6--1-1-1--|
D|-5-3-5--5--5-5-5-3-5--5--5-5-5-3-5--5--5--6-6-6--1-1-1--|


Chorus: (listen to the song for timing and how many times the chords are played)

E|------------------------------------------------------|
B|-------3-3--------------------------------------------|
G|-------0-0---3-3-3---------5-5-5---just repeat this---|
D|-0-0---x-x---3-3-3--1-1-1--5-5-5----------------------|
A|-0-0---3-3---1-1-1--1-1-1--3-3-3----------------------|
D|-0-0----------------1-1-1-----------------------------|

End of Chorus: (pretty much the same as the Intro)

E|-----------------------------------------------------|
B|-----------------------------------------------------|
G|--------------------------------------repeat 2 times-|
D|-----------------------------------------------------|
A|-----------------------------------------------------|
D|-3-4-0-0--3-4-0-0--3-4-0-0--3-4-0-0------------------|

Verse             -|
                   |
Pre-Chorus        -|-  for these, use the tabs above 
                   |
Chorus            -|

Bridge:

E|-----------------------------------------------------|
B|-----------------------------------------------------|
G|----------------------------------5---3--------------|
D|-2-0-2---2--2-0-2---2--2-0-2---2--5-0-3-0-2----------|
A|-2-0-2---2--2-0-2---2--2-0-2---2--3-0-1-0-2----------|
D|-2-0-2---2--2-0-2---2--2-0-2---2----0---0-2----------|


E|-----------------------------------------------------|
B|-----------------------------------------------------|
G|----------------------------------5-5-5--7-7-7-------|
D|-2-0-2---2--2-0-2---2--2-0-2---2--5-5-5--7-7-7-------|
A|-2-0-2---2--2-0-2---2--2-0-2---2--3-3-3--5-5-5-------|
D|-2-0-2---2--2-0-2---2--2-0-2---2---------------------|


E|---------------------------------------------------------------------|
B|---------------------------------------------------------------------|
G|---------------------------------------------------------------------|
D|--7-7-7-7-5-5-5-5-4-4-4-4-5-5-5-5-7-7-7-7-5-5-5-5-4-4-4-4------------|
A|--7-7-7-7-5-5-5-5-4-4-4-4-5-5-5-5-7-7-7-7-5-5-5-5-4-4-4-4--5-5--7-7--|
D|--7-7-7-7-5-5-5-5-4-4-4-4-5-5-5-5-7-7-7-7-5-5-5-5-4-4-4-4------------|


Chorus

Outro is the same as the intro

Enjoy!
Tap to rate this tab
# A B C D E F G H I J K L M N O P Q R S T U V W X Y Z