Song name
# A B C D E F G H I J K L M N O P Q R S T U V W X Y Z

Cherri Bomb - Too Many Faces tab

           
             Intro
e|-------------------------------|
B|-------------------------------|
G|-7-7-9-9-11-11--11-11-11-11-11-| 2x
D|-*-*-*-*--*--*---*--*--*--*--*-|
A|-5-5-7-7--9--9---9--9--9--9--9-|
E|-------------------------------|
   ..............  .............

e|------------------------|
B|------------------------|
G|-4-4-6-6-7-7--7-7-7-7-7-| 2x
D|-*-*-*-*-*-*--*-*-*-*-*-|
A|-2-2-4-4-5-5--5-5-5-5-5-|
E|------------------------|
   ...........  .........

e|-------------------------------|
B|-------------------------------|
G|-7-7-9-9-11-11--11-11-11-11-11~| 2x
D|-*-*-*-*--*--*---*--*--*--*--*-|
A|-5-5-7-7--9--9---9--9--9--9--9-|
E|-------------------------------|

e|-----------------------------------|
B|-----------------------------------|
G|-16-16-14-14-11-11--11-11-11-11-11~|
D|--*--*--*--*--*--*---*--*--*--*--*-|
A|-14-14-12-12--9--9---9--9--9--9--9-|
E|-----------------------------------|

e|------------------------|
B|------------------------|
G|-4-4-6-6-7-7--7-7-7-7-7~| 
D|-*-*-*-*-*-*--*-*-*-*-*-|
A|-2-2-4-4-5-5--5-5-5-5-5-|
E|------------------------|


Do you care about me?
e|-------------------------------|
B|-------------------------------|
G|-7-7-9-9-11-11--11-11-11-11-11-| 2x
D|-*-*-*-*--*--*---*--*--*--*--*-|
A|-5-5-7-7--9--9---9--9--9--9--9-|
E|-------------------------------|
   ..............  .............

e|------------------------|
B|------------------------|
G|-4-4-6-6-7-7--7-7-7-7-7-| 2x
D|-*-*-*-*-*-*--*-*-*-*-*-|
A|-2-2-4-4-5-5--5-5-5-5-5-|
E|------------------------|
   ...........  .........

e|-------------------------------|
B|-------------------------------|
G|-7-7-9-9-11-11--11-11-11-11-11-| 2x
D|-*-*-*-*--*--*---*--*--*--*--*-|
A|-5-5-7-7--9--9---9--9--9--9--9-|
E|-------------------------------|
   ..............  .............

e|------------------------|
B|------------------------|
G|-4-4-6-6-7-7--7-7-7-7-7-| 2x
D|-*-*-*-*-*-*--*-*-*-*-*-|
A|-2-2-4-4-5-5--5-5-5-5-5-|
E|------------------------|
   ...........  .........

Chorus
e|---------------------|
B|-------7-----3-------|
G|-4-----7-----4-----6-|2x
D|-5-----7-----4-----7-|
A|-5-----5-----2-----7-|
E|-3-----------------5-|

hoooooooooooo...
e|-------------------------------|
B|-------------------------------|
G|-7-7-9-9-11-11--11-11-11-11-11~| 2x
D|-*-*-*-*--*--*---*--*--*--*--*-|
A|-5-5-7-7--9--9---9--9--9--9--9-|
E|-------------------------------|

e|------------------------|
B|------------------------|
G|-4-4-6-6-7-7--7-7-7-7-7~| 2x
D|-*-*-*-*-*-*--*-*-*-*-*-|
A|-2-2-4-4-5-5--5-5-5-5-5-|
E|------------------------|

Have you lost yourself?
e|-------------------------------|
B|-------------------------------|
G|-7-7-9-9-11-11--11-11-11-11-11-| 2x
D|-*-*-*-*--*--*---*--*--*--*--*-|
A|-5-5-7-7--9--9---9--9--9--9--9-|
E|-------------------------------|
   ..............  .............

e|------------------------|
B|------------------------|
G|-4-4-6-6-7-7--7-7-7-7-7-| 2x
D|-*-*-*-*-*-*--*-*-*-*-*-|
A|-2-2-4-4-5-5--5-5-5-5-5-|
E|------------------------|
   ...........  .........

e|-------------------------------|
B|-------------------------------|
G|-7-7-9-9-11-11--11-11-11-11-11-| 2x
D|-*-*-*-*--*--*---*--*--*--*--*-|
A|-5-5-7-7--9--9---9--9--9--9--9-|
E|-------------------------------|
   ..............  .............

e|------------------------|
B|------------------------|
G|-4-4-6-6-7-7--7-7-7-7-7-| 2x
D|-*-*-*-*-*-*--*-*-*-*-*-|
A|-2-2-4-4-5-5--5-5-5-5-5-|
E|------------------------|
   ...........  .........

Chorus
e|---------------------|
B|-------7-----3-------|
G|-4-----7-----4-----6-|2x
D|-5-----7-----4-----7-|
A|-5-----5-----2-----7-|
E|-3-----------------5-|

Ok guys I don't know this part but I usually play like this and it sounds good to me.

Bridge
e|------------------------------|
B|------------------------------|
G|-7-7-7-7-7-7--11-9-7-11/12/11-| 2x
D|-*-*-*-*-*-*------------------|
A|-5-5-5-5-5-5------------------|
E|------------------------------|

e|------------------------------|
B|------------------------------|
G|--------------11-9-7----------|
D|-9-9-9-9-9-9---------11/12/11-|
A|-*-*-*-*-*-*------------------|
E|-7-7-7-7-7-7------------------|

e|------------------------------|
B|---------------------11/12----|
G|--------------11-9-7----------|
D|-9-9-9-9-9-9------------------|
A|-*-*-*-*-*-*------------------|
E|-7-7-7-7-7-7------------------|

So many sides to you.
e|-----------------------------|
B|---------------3-3-3-3-3-3-3-|
G|---------------4-4-4-4-4-4-4-|
D|-2-2-2-2-2-2-2-4-4-4-4-4-4-4-|
A|-2-2-2-2-2-2-2-2-2-2-2-2-2-2-|
E|-0-0-0-0-0-0-0---------------|

e|-----------------------------|
B|-7-7-7-7-7-7-7-7-7-7-7-7-7-7-|
G|-7-7-7-7-7-7-7-7-7-7-7-7-7-7-|
D|-7-7-7-7-7-7-7-7-7-7-7-7-7-7-|
A|-5-5-5-5-5-5-5-5-5-5-5-5-5-5-|
E|-----------------------------|

e|-----------------------------|
B|---------------3-3-3-3-3-3-3-|
G|---------------4-4-4-4-4-4-4-|
D|-2-2-2-2-2-2-2-4-4-4-4-4-4-4-|
A|-2-2-2-2-2-2-2-2-2-2-2-2-2-2-|
E|-0-0-0-0-0-0-0---------------|

e|-----------------------------|
B|-----------------------------|
G|-6-6-6-6-6-6-6-6-6-6-6-6-6-6-|
D|-7-7-7-7-7-7-7-7-7-7-7-7-7-7-|
A|-7-7-7-7-7-7-7-7-7-7-7-7-7-7-|
E|-5-5-5-5-5-5-5-5-5-5-5-5-5-5-|

Bridge
e|------------------------------|
B|------------------------------|
G|-7-7-7-7-7-7--11-9-7-11/12/11-| 2x
D|-*-*-*-*-*-*------------------|
A|-5-5-5-5-5-5------------------|
E|------------------------------|

e|------------------------------|
B|------------------------------|
G|--------------11-9-7----------|
D|-9-9-9-9-9-9---------11/12/11-|
A|-*-*-*-*-*-*------------------|
E|-7-7-7-7-7-7------------------|

e|------------------------------|
B|---------------------11/12----|
G|--------------11-9-7----------|
D|-9-9-9-9-9-9------------------|
A|-*-*-*-*-*-*------------------|
E|-7-7-7-7-7-7------------------|

Chorus
e|---------------------|
B|-------7-----3-------|
G|-4-----7-----4-----6-|2x
D|-5-----7-----4-----7-|
A|-5-----5-----2-----7-|
E|-3-----------------5-|

hoooooooooooo...
e|-------------------------------|
B|-------------------------------|
G|-7-7-9-9-11-11--11-11-11-11-11~| 2x
D|-*-*-*-*--*--*---*--*--*--*--*-|
A|-5-5-7-7--9--9---9--9--9--9--9-|
E|-------------------------------|

e|------------------------|
B|------------------------|
G|-4-4-6-6-7-7--7-7-7-7-7~| 2x
D|-*-*-*-*-*-*--*-*-*-*-*-|
A|-2-2-4-4-5-5--5-5-5-5-5-|
E|------------------------|

I hope you like it. 

Tap to rate this tab
# A B C D E F G H I J K L M N O P Q R S T U V W X Y Z