Song name
# A B C D E F G H I J K L M N O P Q R S T U V W X Y Z

Cherri Bomb - Raw Real tab

e|---------------------------|
B|---------------------------|
G|---------------------------|
D|-----------9-7--7-9--------|
A|-/7-9-10------10---9-10-9--|
E|---------8-----------------|

e|-------------------|
B|-------------------|
G|-------------------|
D|------------9-7----|
A|-5/7-9-10-------10-|
E|----------8--------|

e|-------------|
B|-------------|
G|--------7-9^-|
D|-7-9/12------|
A|-------------|
E|-------------|
Tap to rate this tab
# A B C D E F G H I J K L M N O P Q R S T U V W X Y Z