Song name
# A B C D E F G H I J K L M N O P Q R S T U V W X Y Z

Cherri Bomb - Raw Real tab

Raw. Real. 
Cherri Bomb
This is the End of Control (2012)
Tabbed by Catherine

This tab is written for two guitars, one in dropped D tuning and one in standard tuning.

Verse

Guitar One:
e|--------------------------|
B|--------------------------|
G|--------------------------| 
D|-2--2--2--2--2--2--2--2---|
A|-2--2--2--2--2--2--2--2---|
D|-2--2--2--2--2--2--2--2---|

with this little part towards the end:
e|-----------------------------------------------|
B|-----------------------------------------------|
G|-12-12-11-12-12-11-12-12-11-12-12-11-12-12-11--|
D|-----------------------------------------------|
A|-----------------------------------------------|
D|-----------------------------------------------|

Guitar Two:
e|-----------------------------|
B|-----------------------------|
G|-----------------------------|  
D|-2--2--2--2--2--2--2--2-222--|
A|-2--2--2--2--2--2--2--2-222--|
E|-0--0--0--0--0--0--0--0-000--|

Chorus

Guitar One:
e|-----------------------------------------------|
B|-----------------------------------------------|
G|--555-5-5--------------------------------------|
D|--555-5-5---5-5-5-55--4-444444-----------------|
A|--333-3-3---5-5-5-55--5-555555-----------------|
D|------------5-5-5-55--4-444444--0-2-4-5-5-4-2--|

e|-----------------------------------------------|
B|-----------------------------------------------|
G|--55555555------------------------777----------|
D|--55555555--55555555--444-4-4-4---777-7-9------|
A|--33333333--55555555--555-5-5-5---555-7-9------|
D|------------55555555--444-4-4-4---000-7-9------|

e|-----------------------------------------------|
B|-----------------------------------------------|
G|--555-5-5--------------------------------------|
D|--555-5-5---5-5-5-55--4-44-4-0-0--9-99-777-----|
A|--333-3-3---5-5-5-55--5-55-5-0-0--9-99-777-----|
D|------------5-5-5-55--4-44-4-0-0--9-99-777-----|

e|-----------------------------------------------|
B|-----------------------------------------------|
G|--5-5-5-5--555557-9\---------------------------|
D|--5-5-5-5--555557-7\---------------------------|
A|--3-3-3-3--333335-7\---------------------------|
D|-----------------------------------------------|

Guitar Two:
e|---------------------------------------------------|
B|---------------------------------------------------|
G|-9-9-9--7--12-12-12--12--11-11-11--7--16-16-14-14--|
D|-x-x-x--x--x--x--x---x---x--x--x---x--x--x--x--x---|
A|-7-7-7--5--10-10-10--10--9--9--9---5--14-14-12-12--|
E|---------------------------------------------------|
e|-----------------------------------------------------|
B|-----------------------------------------------------|
G|--9-9-9--7--12-12-12--12--11-11-11--7---14-14-16-16--|
D|--x-x-x--x--x--x--x---x---x--x--x---x---x---x--x--x--|
A|--7-7-7--5--10-10-10--10--9--9--9---5---12-12-14-14--|
E|-----------------------------------------------------|

B|----------------------------------------------------|
G|--9-9-9--7--12-12-12--12--11-11-11--7--16-16-14-14--|
D|--x-x-x--x--x--x--x---x---x--x--x---x--x--x--x--x---|
A|--7-7-7--5--10-10-10--10--9--9--9---5--14-14-12-12--|
E|----------------------------------------------------|

e|-----------------------------------------------|
B|-----------------------------------------------|
G|--5-5-5-5--555557-9\---------------------------|
D|--5-5-5-5--555557-7\---------------------------|
A|--3-3-3-3--333335-7\---------------------------|
D|-----------------------------------------------|

Verse repeats

Chorus repeats

Bridge:

Guitar One:
e|-------------------------------------------------------|
B|-------------------------------------------------------|
G|-------------------------------------------------7-9^--|   x2
D|-----------7^----7-9-------------------7^----7-9-------|
A|-7--9-10------10-----9-9-9^--7--9-10------10-----------|
D|---------10--------------------------10----------------|

e|-------------------------------------------------------|
B|-------------------------------------------------------|
G|------------55555555-----------------------------------|   
D|--22222222--55555555--55555555--55555555---------------| 
A|--22222222--33333333--55555555--55555555---------------| 
D|--22222222------------55555555--44444444---------------|

Last time:
e|-----------------------------------------------|
B|-----------------------------------------------|
G|-----------------------------------------------| 
D|--22-222-222-222-222-222-222-222-0-------------| 
A|--22-222-222-222-222-222-222-222-0-------------| 
D|--22-222-222-222-222-222-222-222-0-------------|


Guitar Two:
e|-00000000--00000000--33333333-22222222-----------------|
B|-00000000--11111111--33333333-33333333-----------------|
G|-00000000--00000000--00000000-22222222-----------------|   x3
D|-22222222--22222222--00000000-00000000-----------------| 
A|-------------------------------------------------------| 
E|-------------------------------------------------------|

Last time:
e|-----------------------------------------------|
B|-----------------------------------------------|
G|-----------------------------------------------| 
D|--22-222-222-222-222-222-222-222-0-------------| 
A|--22-222-222-222-222-222-222-222-0-------------| 
D|--22-222-222-222-222-222-222-222-0-------------|

Chorus repeats again until this bit at the very end:



Guitar One:
e|-----------------------------------|
B|-----------------------------------|
G|--5-5-5-5--555557-9\-9\-9\---------|
D|--5-5-5-5--555557-7\-7\-7\----2/---|
A|--3-3-3-3--333335-7\-7\-7\----2/---|
D|------------------------------2/---|

Guitar Two:
e|-----------------------------------|
B|-----------------------------------|
G|--5-5-5-5--555557-9\-9\-9\---------|
D|--5-5-5-5--555557-7\-7\-7\----2/---|
A|--3-3-3-3--333335-7\-7\-7\----2/---|
D|------------------------------0/---|
Tap to rate this tab
# A B C D E F G H I J K L M N O P Q R S T U V W X Y Z