Song name
# A B C D E F G H I J K L M N O P Q R S T U V W X Y Z

Cherri Bomb - Shake The Ground tab

Song: Shake The Ground
Artist: Cherri Bomb
Tuning: standard
Tabbed by: Maddie H.




-Intro

|-------------------------------------------------------------|
|-------------------------------------------------------------|
|-------------------------------------------------------------|x's 2
|--------------------4-----------4----------------2-----------|
|-----4~------------------------------2--0--2--4-----4--2--0--|
|--2--------2--2--2-----2-----2-------------------------------|


-Verse


|-----------------|------------------------------------------------------|
|-----------------|------------------------------------------------------|
|--4-----4--4--4--|------------------------------------------------------|
|--4-----4--4--4--|-----4~-----------4--------4--------------2-----------|
|--2-----2--2--2--|------------------------------2--0--2--4-----4--2--0--|
|-----------------|--2------2--2--2-----2--2-----------------------------|


-Chorus


|------------------------------------------------|
|------------------------------------------------|
|--7---x---9---x/x----7---x---9------------------|
|--7---7---9---9/11---7---7---9---------7--9b-r--|
|--5---7---7---9/11---5---7---7---7--8-----------|
|------5-------7/9--------5----------------------|


-Bridge


|---------------------------------------------------|
|---------------------------------------------------|
|------2---4---5---4---2----------------------------|
|--4---2---4---5---4---2---4---------4--------4-----|
|--4---0---2---3---2---0---4------------------------|
|--2-----------------------2---2--2-----2--2-----2--|
Tap to rate this tab
# A B C D E F G H I J K L M N O P Q R S T U V W X Y Z