Cherry Ghost - A Month Of Mornings tab

----------------------------------------------------------------------------
                            Cherry Ghost
                         A Month of Mornings
                               Intro
----------------------------------------------------------------------------


This nice little riff is played pretty much throughout the hole song.


e|------------------------------------------------------|
B|------------------------------------------------------|
G|-------7-----7----7-----7------10----10---10----10----|
D|----5-----5----5-----5-----5s8----8-----8-----8-------|
A|------------------------------------------------------|
E|------------------------------------------------------|

e|---------------------------------------------------|
B|---------------------------------------------------|
G|---------------------------------------------------|
D|-------8---8----8----8-----8-----8-----8-----8-----|
A|----6----6---6----6-----6-----6-----6-----6--------|
E|---------------------------------------------------|


Thats about it, if anybody could workout whats being played on the acoustic we'd 
have the complete package.
Thanks.
Tap to rate this tab
 
# A B C D E F G H I J K L M N O P Q R S T U V W X Y Z