Song name
# A B C D E F G H I J K L M N O P Q R S T U V W X Y Z

Cherry Poppin Daddies - Jump In The Line tab

--------------------------------------------------------------------------------
       Jump In The Line (Shake, Shake Senora)- Cherry Poppin Daddies
--------------------------------------------------------------------------------
By: Satan Clause

e:---5-8-6-6-6---5-------------------------------: 
b:-6-----------8---------------------------------: 
g:-----------------------------------------------: 
D:-----------------------------------------------: 
A:-----------------------------------------------: 
E:-----------------------------------------------: 


e:-----5---6-------------------------------------: 
b:-6-6---8---8-5---------------------------------: 
g:---------------5-------------------------------: 
D:-----------------------------------------------: 
A:-----------------------------------------------: 
E:-----------------------------------------------: 


This song was Originally by Harry Belafonte but it was remade for the movie
Baseketball and the guitar is a little different.
================================================================================
Tap to rate this tab
 
# A B C D E F G H I J K L M N O P Q R S T U V W X Y Z