Song name
# A B C D E F G H I J K L M N O P Q R S T U V W X Y Z

Cherry Strike - No Vas Conmigo tab

No vas conmigo - Cherry Strike

Dropping standard

(intro de bataka)

"No vas conmigo..."
e|---------------------------------------|
B|---------------------------------------|
G|---------------------------------------|
D|---2--2----5--5----7--7----7--7--7--5--|
A|---2--2----5--5----7--7----7--7--7--5--|
E|---0--0----3--3----5--5----5--5--5--3--|

e|-----------------------------------------|
B|-----------------------------------------|
G|-----------------------------------------|
D|---2--2----5--5----7--7----7---5---2--2--|
A|---2--2----5--5----7--7----7---5---2--2--|
E|---0--0----3--3----5--5----5---3---0--0--|

(continua el bajo y la bataka)

"Estabas ocupado..."

e|-------------------------------------------------------------------|
B|-------------------------------------------------------------------|
G|-------------------------------------------------5-5-5-5-4-4-4-4---|
D|-2-2-2-2-2-2-2-2-5-5-5-5-5-5-5-5-7-7-7-7-7-7-7-7-5-5-5-5-4-4-4-4---|
A|-2-2-2-2-2-2-2-2-5-5-5-5-5-5-5-5-7-7-7-7-7-7-7-7-3-3-3-3-2-2-2-2---|
E|-0-0-0-0-0-0-0-0-3-3-3-3-3-3-3-3-5-5-5-5-5-5-5-5-------------------|


e|-------------------------------------------------------------------|
B|-------------------------------------------------------------------|
G|-------------------------------------------------------------------|
D|-2-2-2-2-2-2-2-2-5-5-5-5-5-5-5-5-7-7-7-7-7-7-7-7-7-7-7-7-7-7-7-7---|
A|-2-2-2-2-2-2-2-2-5-5-5-5-5-5-5-5-7-7-7-7-7-7-7-7-7-7-7-7-7-7-7-7---|
E|-0-0-0-0-0-0-0-0-3-3-3-3-3-3-3-3-5-5-5-5-5-5-5-5-5-5-5-5-5-5-5-5---|


"No vas conmigo..."        (Entiendes lo que digo)
e|---------------------------------------|
B|---------------------------------------|
G|---------------------------------------|
D|---2--2----5--5----7--7----7--7--7--5--|
A|---2--2----5--5----7--7----7--7--7--5--|
E|---0--0----3--3----5--5----5--5--5--3--|


"No vas conmigo..."         (Sabes lo que digo)
e|----------------------------------------|
B|----------------------------------------|
G|----------------------------------5-----|
D|---2--2----5--5----7--7-------5-7---7---|
A|---2--2----5--5----7--7---5-7-----------|
E|---0--0----3--3----5--5-----------------|


"No vas conmigo..."        (Entiendes lo que digo)
e|---------------------------------------|
B|---------------------------------------|
G|---------------------------------------|
D|---2--2----5--5----7--7----7--7--7--5--|
A|---2--2----5--5----7--7----7--7--7--5--|
E|---0--0----3--3----5--5----5--5--5--3--|


"No vas conmigo..."        (Ye-Yeah!)
e|-------------------------------------|
B|-------------------------------------|
G|-------------------------------------|
D|---2--2----5--5----7--7----7---5-----|
A|---2--2----5--5----7--7----7---5-----|
E|---0--0----3--3----5--5----5---3-----|


   "Yeah!"  "Yeah!"  "Yeah!"
e|-------------------------------------------|
B|-------------------------------------------|
G|-------------------------------------------|
D|---2--2----5--5-----7--7----5(full bend)---|
A|---2--2----5--5-----7--7-------------------|
E|---0--0----3--3-----5--5-------------------|


 "Yeah!"  "Yeah!"  "Yeah!"
e|------------------------------------------|
B|------------------------------------------|
G|------------------------------------7-----|
D|---2--2----5--5-----7--7--------5-7---5---|
A|---2--2----5--5-----7--7----5-7-----------|
E|---0--0----3--3-----5--5------------------|

(continua el bajo y la bataka)

"Estabas ocupado..."

"No vas conmigo..."

¡Shout the fuckin' now!

  "No vas conmigo..."
e|-------------------------------------------|
B|-------------------------------------------|
G|-------------------------------------------|
D|---2--2----5--5-----7--7----5(full bend)---|
A|---2--2----5--5-----7--7-------------------|
E|---0--0----3--3-----5--5-------------------|


"No vas conmigo..."
e|------------------------------------------|
B|------------------------------------------|
G|------------------------------------------|
D|---2--2----5--5-----7--7------------------|
A|---2--2----5--5-----7--7------------------|
E|---0--0----3--3-----5--5------------------|



"No vas conmigo..."
e|------------------------------------------|
B|------------------------------------------|
G|------------------------------------------|
D|---2--2----5--5-----7--7------------------|
A|---2--2----5--5-----7--7------------------|
E|---0--0----3--3-----5--5------------------|


"No vas conmigo..."
e|------------------------------------------|
B|------------------------------------------|
G|------------------------------------------|
D|---2--2----5--5-----7--7----7--5--2-------|
A|---2--2----5--5-----7--7----7--5--2-------|
E|---0--0----3--3-----5--5----5--3--0-------|


http://www.myspace.com/cherrystrike
Tap to rate this tab
 
# A B C D E F G H I J K L M N O P Q R S T U V W X Y Z