Song name
# A B C D E F G H I J K L M N O P Q R S T U V W X Y Z

Chester French - She Loves Everybody tab

-------------------------------------------------------------------------------
			     SHE LOVES EVERYBODY - Chester French
-------------------------------------------------------------------------------
Tabbed by: THE ASHHOLE
Email: maip233@yahoo.com

Tuning: Standard

INTRO
F# Bb Bdim

VERSE 1

Ebmin
Somebody call my baby

Ebmin                          Bbmin
Somebody call her up real quick

                  Ebmin
I think I need my fix


Always around to please me
Always around to take control
I never feel alone
Yeah

PRECHORUS

F#                 Bb   Bdim
But she feels so clean

CHORUS

B         Ebmin     Bb
Well she craves affection

B         Ebmin     Bb
So I use protection

B         Ebmin     Bb
And I know she loves me

B         Ebmin     Bb
She loves everybody

F#min    Bmin
Baby oh no


(Oh yeah)

F#min    Bmin
Darling oh no


(Oh yeah)

F#min
Baby oh!

RIFF 1
e|---------------------------------------------------------------------------|
B|---------------------------------------------------------------------------|
G|---------------------------------------------------------------------------|
D|---------------------------------------------------------------------------|
A|-3-----6--9-----11-8-----8-5-----5-2-----2------------5---6----------------|
E|-------------------------------------------4------4-7---6------------------|

VERSE 2

You're just a little girl now
You're just a girl who misses her dad
And all the toys that she had

Thought I could make you older
Thought I could keep you out of harm
But now you're caught in my arms

PRECHORUS

But she feels so clean

CHORUS w/ added guitar riff (play same riff in last chorus as well)

e|----------------------|
B|---------7----6-------|
G|-7-8-7----------8-----|
D|----------------------|
A|----------------------|
E|----------------------|

Well she craves affection
So I use protection
And I know she loves me
She loves everybody

Baby oh no
(Oh yeah)
Darling oh no
(Oh yeah)
Baby oh!

VERSE 3

Now that we've made it this far
Now that we've made a mess in the car
You ought to give it a rest

PRECHORUS

But she feels so clean

CHORUS w/ added piano

Well she craves affection
So I use protection
And I know she loves me
She loves everybody

Well she craves affection
So I use protection
And I know she loves me
She loves everybody 

*Play this piano riff second time the chorus repeats*

e|-6----4---------4----6---|
B|-----------7-------------|
G|-------------------------|
D|-------------------------|
A|-------------------------|
E|-------------------------|

B  F# Bb *repeat until fade out*

*Optional live version riff ending below*

e|---------------------------------------------------------------------------|
B|---------------------------------------------------------------------------|
G|---8---7---6---5---4---3---------------------------------------------------|
D|-9---8---7---6---5---4-----------------------------------------------------|
A|---------------------------------------------------------------------------|
E|---------------------------------------------------------------------------|


www.chesterfrench.com


| /  slide up
| \  slide down
| h  hammer-on
| p  pull-off
| ~  vibrato
| +  harmonic
| x  Mute note
===============================================================================
Tap to rate this tab
# A B C D E F G H I J K L M N O P Q R S T U V W X Y Z