Song name
# A B C D E F G H I J K L M N O P Q R S T U V W X Y Z

Chester See - Nice Guys tab

Hey Guys this is the tab FuMUSIC made up for the solo of Nice Guys by Chester See, 
Nigahiga and Kevjumba.

h = hammer on
/ = Slide up
\ = Slide down



e-----------------------------------------------------------------------------|
A-----------------------------------------------------------------------------|
D-----------------------------------------------------------------------------|
G--2h4-----------------------------------------------------4\2---0---2--------|
B---------3/5---3---5-----------------3---------3h5---5-----------------------|
E-------------------------3---3/5\3-------------------------------------------|


e----------------------------------------------------------------------------|
A----------------------------------------------------------------------------|
D----------------------------------------------------------------------------|
G---2h4---0---2---2h4---4---4---4---0---0---0---0---0---0---0---0---2--------|
B-----------------------3---3---3---3---3---3---3---3---3---3---3---3--------|
E----------------------------------------------------------------------------|


e----------------------------------------------------------------------------|
A----------------------------------------------------------------------------|
D--------------------------4---2---0---2-------------------------------------|
G---4---2---4---2---0---------------------0---2---3/5---3---5----------------|
B---3---3---3---3---3--------------------------------------------------------|
E---------------------------------------------------------------------3/5--3-|


e----------------------------------------------------------------------------|
A----------------------------------------------------------------------------|
D----------------------------------------------------------------------------|
G----------------------------------------------------------------------------|
B----------------------------------------------------------------------------|
E---5/7---7---7---7---7---7---7---7---5---5---5---5---3----3---5---7---------|


e----------------------------------------------------------------------------|
A----------------------------------------------------------------------------|
D----------------------------------------------------------------------------|
G----------------------------------------------------------------------------|
B----------------------------------------------------------------------------|
E---5---5---5---3---2--------------------------------------------------------|
Tap to rate this tab
# A B C D E F G H I J K L M N O P Q R S T U V W X Y Z