Chet Atkins - Yakety Axe tab

ok you u guys this is my first tab but i think it sounds pretty good
standard tuning


e|-------3------------------------------------------------3-----------------|
b|bend6-----5--3-----3-5-3----------------5-3------bend6-----5--3-----3-5-3-|
g|----------------4-----------4/2-0-0-2/4--------------------------4--------|
d|--------------------------------------------------------------------------|
a|--------------------------------------------------------------------------|
e|--------------------------------------------------------------------------|


e|---------------5-----------3-3------3-3------3-3------3-3-----------------|
b|----3-3---5/7-----7/5---3------6/8------6/8------6/8------5--3--------1-1-|
g|-4-------------------------------------------------------------4--4/5-----|
d|--------------------------------------------------------------------------|
a|--------------------------------------------------------------------------|
e|--------------------------------------------------------------------------|


e|----------------------3---------7/5/7/5----10---6-7----10--7-8-7--------|
b|-------1-1-----5-3-5---------------------------------8------------10-8--|
g|--4/5-------4-----------------------------------------------------------|
d|------------------------------------------------------------------------|
a|------------------------------------------------------------------------|
e|------------------------------------------------------------------------|


e|------------10-------------------------------------5--------------------|
b|---8--10/12----12-10-8------8-----------3-3---5/7---7/5--3--------------|
g|------------------------7/9----9-7---5----------------------------------|
d|------------------------------------------------------------------------|
a|------------------------------------------------------------------------|
e|------------------------------------------------------------------------|


e|--------8-----------------------------------------------------------8--8-8-|
b|bend11----11--8-8--10--8-7-8--10--8-7-7-7-8--7----------------8-10---------|
g|------------------------------------------------10-9-----7-8/9-------------|
d|------------------------------------------------------10-------------------|
a|---------------------------------------------------------------------------|
e|---------------------------------------------------------------------------|


e|---------------------------10-------------|
b|---10--8-----8--8---10/12-------12/10--8--|
g|----------9-------------------------------|
d|------------------------------------------|
a|------------------------------------------|
e|------------------------------------------|

ok for this next part u need to rake the notesmarked with the
e|-----8^-----------8^------8^------------------8^----8^----8^--------------|
b|----8^-----------8^------8^---10--8----------8^----8^----8^---10--8-------|
g|---9^-----------9^------9^-----------7------8^----8^----8^----------9-----|
d|-10^----------10^-----10^-----------------10^---10^---10^--------------10-|
a|--------------------------------------------------------------------------|
e|--------------------------------------------------------------------------|


e|--------------------------------8--------------|
b|---------8--------------8--10-----10--8--------|
g|--7--8/9---------7-8/9-------------------9--10-|
d|-------------10--------------------------------|
a|-----------------------------------------------|
e|-----------------------------------------------|

for this part u have to get the rythme from the song to play it

e|-------------------------------------------------------------------------|
b|--------------------10-------------------10-------------8------------10--|
g|---55-0-55-0-55-0-5-----55-0-55-0-55-0-5----55-0-55-0-5---44-0-44-0-4----|
d|-------------------------------------------------------------------------|
a|-------------------------------------------------------------------------|
e|-------------------------------------------------------------------------|


e|------------------------------------------------------------------------8-|
b|--------------8---------------13----------11-------------10---------------|
g|--44-0-44-0-4----55-0-55-0-5--55-0-55-0-5----55-0-55-0-5----88-0-88-0-8---|
d|--------------------------------------------------------------------------|
a|--------------------------------------------------------------------------|
e|--------------------------------------------------------------------------|


e|-------------------------------8--8--------------------------------------|
b|------------8-------------8-10-----10-8--8h10p8--------------------------|
g|-----7-9/10--------7-9/10-----------------------9------------------------|
d|--10-----------10---------------------------------10---------------------|
a|-------------------------------------------------------------------------|
e|-------------------------------------------------------------------------|


thats it hope u enjoy
if u have any questions just email me at bmxcordell@live.com
Tap to rate this tab
 
# A B C D E F G H I J K L M N O P Q R S T U V W X Y Z