Song name
# A B C D E F G H I J K L M N O P Q R S T U V W X Y Z

Chet Atkins - Wildwood Flower tab

Wildwood Flower (Chet Atkins style)

Arranged by Tony Crowley

Youtube video of arrangement on http://www.youtube.com/watch?v=CCsCZbGxSPk

Download Mp3 on http://www.4shared.com/audio/bRsW4ARM/Wildwoodflower.html

Where possible, hold down and play out of the basic chords shown above the tab 
starting with a C chord

For the 10th 12th 15th and 19th measures, finger 3 2 3 0 3 0 

p= pull off  h= hammer on


 |       |       |      C        |        |       |       |        
|--------------------------------|----0---------------0-----------|
|--------------------------------|----1-------1-------1-----------|
|--------------------------------|0-------0h2---------0-----------|
|------------------------2---3---|----------------2-------3---2---|
|--------------------------------|--------------------------------|
|--------------------------------|--------------------------------|
 
 G7       |       C       |        |       |       |       |        
|--------------------------------|--------------------0-----------|
|--------------------1-------1---|----1---------------1-------1---|
|--------------------0-------0---|----0-----------0-------0h2-----|
|0-------2p0---------2---3-------|----2---2---3-------------------|
|------------2---3---------------|3-------------------------------|
|----3---------------------------|--------------------------------|
 
 |       |      G7       |       C       |       |       |        
|----0---------------------------|--------------------------------|
|----1---------------------------|----1-------1-------1-------1---|
|----0---------------------------|----0-------0-------0---0-------|
|2-------3---2---0-------2p0-----|----2---3-----------2-----------|
|----------------------------2---|3---------------3---------------|
|--------------------3-----------|--------------------------------|
 
 |       |       |       |        F       |       |       |        
|0-----0-0-----------0-------0---|----1-------1-------------------|
|1-------1---3---1-------0-------|----1---0---1-------------------|
|0-------0-----------------------|2---2---2---2---0---------------|
|2-------2-----------------------|----------------2-----------0---|
|3-------3-----------------------|----------------3-------3-------|
|--------------------------------|--------------------------------|
 
 C       |       |       |        See notes           |       |        
|--------------------------------|--------0-----------------------|
|--------------------------------|----3-------3-------1-------1---|
|0-------------------0-----------|----0-------0-------0-------0---|
|2-------2-----0h2-----------2---|----3-------3-------2---3-------|
|3-------------------------------|----------------3---------------|
|--------------------------------|3-------------------------------|
 
 C       |       |       |        |       |       |       |        
|--------------------8-------8---|----8-------8-----------0-------|
|1---------------8-------8-10----|----8-------8-------3-------3---|
|0-------9---10------------------|9-------10--9-------0-------0---|
|2-------------------------------|--------------------3-------3---|
|3-------------------------------|--------------------------------|
|--------------------------------|----------------3---------------|
 
 C           |           High C           |       |       |        
|--------------------------------|----8-------8-------8---8---8---|
|----1-------1-------------------|8-------8-10--------8---8---8---|
|----0-------0-----------9---10--|----------------9-------10--9---|
|----2---3-----------------------|--------------------------------|
|3---------------3---------------|--------------------------------|
|--------------------------------|--------------------------------|
 
 G7              C       |        |       |       |       |        
|--------0-----------------------|----------------12----1212--10--|
|----3-------3-------1-------1---|1-----------13--13----1313--10--|
|----0-------0-------0-------0---|0-------12------12----1212--10--|
|----3-------3-------2---3-------|2-------------------------------|
|----------------3---------------|3-------------------------------|
|3-------------------------------|--------------------------------|
 
 |       |       |    slide       C       |       |       |        
|8-------7-------5-----5-7---5---|3---------------0-------0-----0-|
|8-------8-------6-----6-6---6---|1-------1---3---1-------1-------|
|9-------7-------5-----5-7---5---|0---------------0-------0-------|
|10------------------------------|2---------------2-------2-------|
|--------------------------------|3---------------3-------3-------|
|--------------------------------|--------------------------------|
 
 |       |       |       |        |       |       |       |        
|0---3-------0-----------0-------|--------------------------------|
|1-----------1-------3-------3---|----1-------1---------------13--|
|0-----------0-------0-------0---|----0-------0-----------12------|
|2-----------2-------3-------3---|----2---3-----------------------|
|3-----------3-------------------|3---------------3---------------|
|----------------3---------------|--------------------------------|
 
 |       |       |       |        F       G       C       |        
|12----1212--10--8-------7-------|5-----5-7---5---3---------------|
|13----1313--10--8-------8-------|6-----6-6---6---1---------------|
|12----1212--10--9-------7-------|5-----5-7---5---0---------------|
|----------------10--------------|----------------2-----------0---|
|--------------------------------|----------------3-------3-------|
|--------------------------------|--------------------------------|
 
 |       |       |       |        G7      |       C       |        
|--------------------------------|--------------------------------|
|--------------------------------|----------------1---------------|
|0-------------------0-----------|----0---0---0---0---------------|
|2-------2-----0h2-----------2---|----0---2---0---2---------------|
|3-------------------------------|----------------3---------------|
|--------------------------------|3-------------------------------|
Tap to rate this tab
 
# A B C D E F G H I J K L M N O P Q R S T U V W X Y Z