Song name
# A B C D E F G H I J K L M N O P Q R S T U V W X Y Z

Chet Baker - You And The Night And The Music tab

Chet Baker - You and the Night and the Music
tuning: standard


|-----------------------------8------------------------------|
|-8--9-7-8--9-7-8-8--8--9-7-8---8-6-6--6--8-5-6-8-5-6-6--8-5-|
|------------------------------------------------------------|
|------------------------------------------------------------|
|------------------------------------------------------------|
|------------------------------------------------------------|

|---------------------------8------------------------------------|
|-8--9-7-8-9-7-8--8-8-9-7-8---8-6-6--6--8-5-6-8-5-6-6--5-6-9-8-5-|
|----------------------------------------------------------------|
|----------------------------------------------------------------|
|----------------------------------------------------------------|
|----------------------------------------------------------------|

|---------------------------------------------------------------------------|
|---------------------------------------------------------------------------|
|-0-2-5-8-10-7-10-7-8-8--6h5--8-6-7-8-6-7-7--5--7-4-5-7-4-5-5--7-4--0-1-3-0-|
|---------------------------------------------------------------------------|
|---------------------------------------------------------------------------|
|---------------------------------------------------------------------------|

|---------------------------------------------------------------------------------|
|---------------------------------------------------------------------------------|
|--------------------------------5----5--------------------4-5----8-----7-4h5p4h5-|
|-0-3-s8-6h8-5--6-4-5-6-4-5-5--5----5---4-3--3-4-2-5-6-5-7-----6----6-5-----------|
|---------------------------------------------------------------------------------|
|---------------------------------------------------------------------------------|
Tap to rate this tab
# A B C D E F G H I J K L M N O P Q R S T U V W X Y Z