Song name
# A B C D E F G H I J K L M N O P Q R S T U V W X Y Z

Chet Faker - Dead Body tab

Dead Body - chet faker. solo

(/) Slide Up  (\) Slide Down  (h) Hammer On  (p) Pull Off  (b) Bend (r) Release (v) Vibrato

Stave 1:

E|-----------------------------------------|
B|-----------------------------------------|
G|--12--10--9--10--5--2--2--4--5--4--0-----|
D|--------------------------------------2--|
A|-----------------------------------------|
E|-----------------------------------------|

Stave 2:

E|------------------------------------------------|
B|------------------------------------------------|
G|--12--10--9--10--5--2--2--4--5--4--0--2h4h0-----|
D|---------------------------------------------2--|
A|------------------------------------------------|
E|------------------------------------------------|

Stave 3:

E|-----------------------------------------|
B|-----------------------------------------|
G|--7/9--7--5--9--9--9--9--10--9--4--2--0--|
D|-----------------------------------------|
A|-----------------------------------------|
E|-----------------------------------------|

Stave 4:

E|--------------------------------------------------|
B|----------------------------------20------20------|
G|--12--14--17--19--21--19--17--15------16----------|
D|----------------------------------------------17--|
A|--------------------------------------------------|
E|--------------------------------------------------|

Stave 5:

E|--20-------------------------------------------------------------------------------|
B|--------17--15--13--15--10--8--10--8-----------------------------------------------|
G|--------------------------------------9--7--5----0h1h2--5--12--12--12h14----14b17--|
D|-----------------------------------------------------------------------------------|
A|-----------------------------------------------------------------------------------|
E|-----------------------------------------------------------------------------------|

Stave 6:

E|---------------------|
B|---------------------|
G|--------9--7--9--12--| just solo from here
D|--2--5---------------|
A|---------------------|
E|---------------------|
Tap to rate this tab
# A B C D E F G H I J K L M N O P Q R S T U V W X Y Z