Song name
# A B C D E F G H I J K L M N O P Q R S T U V W X Y Z

Chevelle - Tug-o-war tab

ok im pretty sure this song is in Drop A# but i tried to get it in B



Intro ( these palm muted)
|-------------------------------------------------------------------|
|-------------------------------------------------------------------|
|-------------------------------------------------------------------|
|-----------3p2----------------3p2---------------3p2--------------0-|
|-------------------------------------------------------------------|
|-00000000--------0000000000--------0000000000--------0000000000----|

|-------------------------------------------------------------------|
|-------------------------------------------------------------------|
|-------------------------------------------------------------------|
|-----------------------------------------------------------------0-|
|----------5p4----------------5p4--------------5p4------------------|
|-00000000--------0000000000--------0000000000--------0000000000----|


Intro 2

|-------------------------------------------------------------------|
|-------------------------------------------------------------------|
|-------------------------------------------------------------------|
|-00000000-3p2----0000000000---3p2--0000000000---3p2--0000000000--0-|
|-00000000--------0000000000--------0000000000--------0000000000----|
|-00000000--------0000000000--------0000000000--------0000000000----|

|-------------------------------------------------------------------|
|-------------------------------------------------------------------|
|-------------------------------------------------------------------|
|-00000000--------0000000000--------0000000000--------0000000000--0-|
|-00000000-5p4----0000000000--5p4---0000000000-5p4----0000000000----|
|-00000000--------0000000000--------0000000000--------0000000000----|


Tap to rate this tab
 
# A B C D E F G H I J K L M N O P Q R S T U V W X Y Z