Song name
# A B C D E F G H I J K L M N O P Q R S T U V W X Y Z

Chevelle - Pictures Of You tab

all right i discoverd this song a wile ago at school when i should been doing my school 
but anyways here goes now chevelle uses that drop b tuning and i think thats what hes 
so bear with me here

-------------------------------------------------|
-------------------------------------------------|
-------------------------------------------------|
----------------7-----------------------------0--|
----------------7-----------------------------0--|
----------------7---slide to 12th fret or so--0--| 
-then repeat with distoretion this is the whole song except for were it goes


-------------------------------------------------|
-------------------------------------------------|
---------------------------------------4---------|
-----------2---0--------2---0------2---4----7----|
-----------2---0--------2---0------2---2----7----|
-----------2---0--------2---0------2--------7----|
Tap to rate this tab
# A B C D E F G H I J K L M N O P Q R S T U V W X Y Z