Song name
# A B C D E F G H I J K L M N O P Q R S T U V W X Y Z

Chevelle - Paint The Seconds Acoustic tab

Hi this is my first tab.Its an acoustic version of Paint the seconds by chevelle(It also 
pretty well on electric to).I pretty much took screamline's tab and tweaked it a bit so 
of the creadit goes to him.(thanks for the awsome tab screamline best song ever)
i try to put how many time to play each part i might of missed a few so just listen to 
song. Just PM me if u have any questions
Tuning:Drop D

Intro/chorus
----------     ------|
----------     ------|
-9--12--7-     -5--7-|
-7--10--5-  3X -3--5-|
-7--10--5-     -3--5-|
-7--10--5-     -3--5-|


Verse(i like to do harmonics each round)this part may be alil confusing
--------------------------------------| (4x)
--------------------------------------|
--------------------------------------|
--------------------------------------| 1st round
---------5--7----333333-----------3---|
-777777--------7-------555555---------|

--------------------------------------|
--------------------------------------|  2nd round
--------------------------------------|
--------------------------------------|
---------5(*)--7----333333---------3--|
-777777-----------7-------555555------|


----------------------------------------|
----------------------------------------|   3rd round
----------------------------------------|
----------------------------------------|
---------5(*)--7(*)----333333---------3-|
-777777-------------7-------555555------|


------------------------------------------|
------------------------------------------|   4th round
------------------------------------------|
------------------------------------------|
---------5(*)--7(*)----333333-----------3-|
-777777-----------7(*)-------555555-------|

Verse part 2(you can do harmonics here to just gotta mess around with it)

----------------------------------| (4X)
----------------------------------|
----------------------------------|
----------------------------------|
---------5--7--0--333333-----3--0-|
--777777-----------------5--------|

Pre-Chorus
----------------    -----------|
----------------    -----------|
----------------(3x)-----------|
--0h22/3--------    --333--555-|
--0h22/3--------    --333--555-|
--0h22/3--------    --333--555-| (forth time)

Bridge(Play this through solo)
----------------------|
----------------------|
--555-xx----- 555/777-|
--333-xx-(3X)-333/555-| (Forth time)
--333-xx------333/555-|
--333-xx------333/555-|

(Strum at the end)
-555--777-|
-333--555-|
-333--555-|
-333--555-|


Intro/chorus

Outro
------------------------------------------------------------|
------------------------------------------------------------|
------------------------------------------------------------|
------------------------------------------------------------|
----7--5--0--3---------7--5--0--3----5--7--0--3-------------|
--7------------5-----7-------------7-------------5--3--5--7-|

Song order

into/chorus
verse
pre-chorus
inro/chorus
verse
pre-chorus
intro/chorus
bridge
inro/chorus
outro
Tap to rate this tab
# A B C D E F G H I J K L M N O P Q R S T U V W X Y Z