Song name
# A B C D E F G H I J K L M N O P Q R S T U V W X Y Z

Chevelle - Mexican Sun tab

MEXICAN SUN

Hey guys, here is my attempt at Mexican Sun, I think i got most of it.

Tuned B,F#,B,E,G#,C#


Intro

|-------------------------------------------------------------------|
|-------------------------------------------------------------------|
|-------------------------------------------------------------------|
|-------------------------------------------------------------------| X2
|-------------------------------------------------------------------|
|-5-5-5-7-7-7-8-8-8-10-10-10-0-5-5-5-7-7-7-8-8-8-10-10-10-0---------|


|------------------------------------------------------------------|
|------------------------------------------------------------------|
|------------------------------------------------------------------|
|------------------------------------------------------------------| X2
|------------------------------------------------------------------|
|-5-5-5/7-7-7/8-8-8/10-10-10-0-5-5-5/7-7-7/8-8-8/10-10-10-0--------|


|---------------------------------------------|
|---------------------------------------------|
|---------------------------------------------|
|-5--5/7--7/8--8/10-0-5--5/7--7/8--8/10-0-----|
|-5--5/7--7/8--8/10-0-5--5/7--7/8--8/10-0-----| x2
|-5--5/7--7/8--8/10-0-5--5/7--7/8--8/10-0-----|

Verse

|---------------------------------------------------------------------|
|----------------------------------1---1------------------------------|
|---------------------7---7--------------------5---5-------3----3-----|
|--5~-3~-2~-1~--5~---5---5--3~--3---3--2~---2---2--1~---1---1---------|
|---------------------------------------------------------------------|
|---------------------------------------------------------------------|


Lead into Chorus

|-----------------------------------|
|-----------------------------------|
|-----------------------------------|
|-7--77-77-7-7---7--77-77-7-7-------|
|-7--77-77-7-7---7--77-77-7-7-------|
|-7--77-77-7-7---7--77-77-7-7-------|

|-----------------------------------|
|-----------------------------------|
|-----------------------------------|
|-7--77-77-7-7---7--77-77-7-7-7-----|
|-7--77-77-7-7---7--77-77-7-7-7-----|
|-7--77-77-7-7---7--77-77-7-7-7-----|

Chorus

played only Main Chorus
on the first chorus Riff
|------------------|--------------------|
|------------------|--------------------|
|--7---------------|--7-----------------|
|--7---10---8---7--|--7---10---3--5-----| You can figure out the strumming, its pretty easy.
|--5---10---8---7--|--5---10---3--5-----|
|------10---8---7--|------10---3--5-----|

|------------------------------------------------------------|
|------------------------------------------------------------|
|--7-7-7-7-7-7-----------------------------------------------|
|--7-7-7-7-7-7--10-10-10-10-10-10--3-3-3-3-3-3--5-5-5-5-5-5--|
|--5-5-5-5-5-5--10-10-10-10-10-10--3-3-3-3-3-3--5-5-5-5-5-5--|
|---------------10-10-10-10-10-10--3-3-3-3-3-3--5-5-5-5-5-5--|


|----------------------------------------------------------------|
|----------------------------------------------------------------|
|--7-7-7-7-7-7---------------------------------------------------|
|--7-7-7-7-7-7--10-10-10-10-10-10--8-8-8-8-8-8--7-7-7-7-7-7------|
|--5-5-5-5-5-5--10-10-10-10-10-10--8-8-8-8-8-8--7-7-7-7-7-7------|
|---------------10-10-10-10-10-10--8-8-8-8-8-8--7-7-7-7-7-7-$$$--|


END of second chourus

|-------------------------------------------------------------------------|
|-------------------------------------------------------------------------|
|--7-7-7-7-7-7-----------------------10-10-10-10-10-10--9-9-9-------------|
|--7-7-7-7-7-7--10-10-10-10-10-10--10-10-10-10-10-10--9-9-9--x-7-0--------|
|--5-5-5-5-5-5--10-10-10-10-10-10---8--8--8--8--8--8---7-7-7--x-7-0-------|
|----------------10-10-10-10-10-10------------------------------x-7-0-----|



Bridge - alternates between two parts

|----------------------------------------------------|
|----------------------------------------------------|
|----------------------------------------------------|
|-0--0-0--7-77-0-xx-8-7--0--0-0--7-77-0-xx-8-7-------|
|-0--0-0--7-77-0-xx-8-7--0--0-0--7-77-0-xx-8-7-------|
|-0--0-0--7-77-0-xx-8-7--0--0-0--7-77-0-xx-8-7-------|

|--------------------------------------------|
|--------------------------------------------|
|-8--888-888-xx-8-7--8--888-888-xx-8-7-------|
|-8--888-888-xx-8-7--8--888-888-xx-8-7-------|
|-8--888-888-xx-8-7--8--888-888-xx-8-7-------|

Last chourus

|-----------------------------------------------------------------|
|-----------------------------------------------------------------|
|--7-7-7-X-X-X----------------------------------------------------|
|--7-7-7-X-X-X--10-10-10-X-X-X---3-3-3-X-X-X--5-5-5-X-X-X---------|
|--5-5-5-X-X-X--10-10-10-X-X-X---3-3-3-X-X-X- 5-5-5-X-X-X---------|
|----------------10-10-10-X-X-X---3-3-3-X-X-X--5-5-5-X-X-X--------|

main chorus riff again

|--------------------|
|--7-----------------|
|--7---10---3--5-----|
|--5---10---3--5-----|
|------10---3--5-----|


then, to close
|------------------------------------------------------------|
|------------------------------------------------------------|
|--7-7-7-7-7-7-----------------------------------------------|
|--7-7-7-7-7-7--10-10-10-10-10-10--3-3-3-3-3-3--5-5-5-5-5-5--| x4
|--5-5-5-5-5-5--10-10-10-10-10-10--3-3-3-3-3-3--5-5-5-5-5-5--|
|---------------10-10-10-10-10-10--3-3-3-3-3-3--5-5-5-5-5-5--|

| $ Pick Scrape
| / slide up
| \ slide down
| h hammer-on
| p pull-off
| v vibrato
| + harmonic
| x Mute note
~ let ring
Tap to rate this tab
# A B C D E F G H I J K L M N O P Q R S T U V W X Y Z