Song name
# A B C D E F G H I J K L M N O P Q R S T U V W X Y Z

Chevelle - Letter From A Thief tab

Artist: Chevelle
Song: Letter From A Thief
Album: Sci-Fi Crimes
-------------------------------------------------------
Letter From A Thief - Chevelle
-------------------------------------------------------
Tabbed by: Matt Goss (makaio726@yahoo.com) 09.14.09
Tuning: B F# B E G# C#

Intro:
C# |------------------------5-----------5---------------------|
G# |--------------------------6-3-6------6-3-6----------------|
E  |-7 7 7 7 7 7 7 7------------------------------10 10/ 5----|
B  |-7 7 7 7 7 7 7 7---X4-------------------------8  8 / 5----|
F# |-5 5 5 5 5 5 5 5------------------------------8  8 / 3----|
B  |----------------------------------------------------------|

Verse: Play twice
C# |--------------------------------------------------------|
G# |--------------------------------------------------------|
E  |-7 7 7 7 7 7 7 7 7 7 7 7 7 7 7 7-----------10 10 / 5----|
B  |-7 7 7 7 7 7 7 7 7 7 7 7 7 7 7 7---X3------8   8 / 5----|
F# |-5 5 5 5 5 5 5 5 5 5 5 5 5 5 5 5-----------8   8 / 3----|
B  |--------------------------------------------------------|

Chorus:
C# |----------------------------------------|
G# |----------------------------------------|
E  |----------7---10------------------------|
B  |-8---10---7---10---x2---------7---------|
F# |-8---10---5----8--------------7--mute---|
B  |-8---10-----------------------7---------|

Verse:
C# |---------------------------------------------------------|
G# |---------------------------------------------------------|
E  |-7 7 7 7 7 7 7 7 7 7 7 7 7 7 7 7------------10 10 / 5----|
B  |-7 7 7 7 7 7 7 7 7 7 7 7 7 7 7 7---X3-------8   8 / 5----|
F# |-5 5 5 5 5 5 5 5 5 5 5 5 5 5 5 5------------8   8 / 3----|
B  |---------------------------------------------------------|

Chorus:
C# |-----------------------------------|
G# |-----------------------------------|
E  |----------7---10-------------------|
B  |-8---10---7---10---X2------8---10--|
F# |-8---10---5----8-----------8---10--|
B  |-8---10--------------------8---10--|

Bridge: Play twice
C# |--------------------------------|
G# |--------------------------------|
E  |-15-14---15-14---15-14---15-12--|
B  |--x--x----x--x----x--x----x--x--|
F# |-13-12---13-12---13-12---13-10--|
B  |--------------------------------|

Solo:
C# |--------------------------------------------------------------|
G# |--------------------------------------------------------------|
E  |-9b--10--5--2--/9b--10--5--2--/9b--10--5--2--/9b--10--5--3~~~-|
B  |--------------------------------------------------------------|
F# |--------------------------------------------------------------|
B  |--------------------------------------------------------------|

C# |---------------------------------------------------------------|
G# |---------------------------------------------------------------|
E  |-----------------------------77777777-1010101010101010-\\\\\\\-|
B  |-88888888--1010101010101010--77777777-1010101010101010-\\\\\\\-|
F# |-88888888--1010101010101010--55555555--8-8-8-8-8-8-8-8--\\\\\\-|
B  |-88888888--1010101010101010------------------------------------|

Chorus:
C# |-----------------------|
G# |-----------------------|
E  |----------7---10-------|
B  |-8---10---7---10---X4--|
F# |-8---10---5----8-------|
B  |-8---10----------------|

Ending:
C# |-----------|
G# |-----------|
E  |-----------|
B  |-7----0~~~-|
F# |-7----0~~~-|
B  |-7----0~~~-|


 / slide up
 \ slide down
 x mute note
 ~ let ring
Tap to rate this tab
# A B C D E F G H I J K L M N O P Q R S T U V W X Y Z