Song name
# A B C D E F G H I J K L M N O P Q R S T U V W X Y Z

Chevelle - Roswells Spell tab

Chevelle - Roswell's Spell
Track 08 - Sci-fi Crimes

Tuning:
B F# B E G# C#

VERSE

C#|------------------------------55555555-------------------------------------|
G#|---------xx55555555---------xx55555555-------------------------------------|
E |---------xx44444444---------xx---------------------------------------------|
B |-22-2-22-xx---------22-2-22-xx-------------------------------------------o-|
F#|-22-2-22------------22-2-22----------------------------------------------o-|
B |-22-2-22------------22-2-22------------------------------------------------|

C#|-12==-------------------------------------------12==-----------------------|
G#|---------12=-------------------------------------------12=-----------------|
E |-----12==---12====---------------------------------12==---12==-------------|
B |-------------------12--12=12----12--12=12--12---------------------12=------|
F#|-----------------14--14------12--12------12--------------------14=---12====|
B |---------------------------------------------------------------------------|

CHORUS

C#|-x----------------------------x--------------------------------------------|
G#|-5----------------------------5--------------------------------------------|
E |-4----------------------------4--------------------------------------------|
B |-2-------10-----xx7==77777777-2-------10-----xx5==55555555-----------------|
F#|-2-(16x)-10(4x)-xx7==77777777-2-(16x)-10(4x)-xx5==55555555-----------------|
B |-2-------10-----xx7==77777777-2-------10-----xx5==55555555-----------------|

C#|-x----------------------------x--------------------------------------------|
G#|-5----------------------------5--------------------------------------------|
E |-4----------------------------4--------------------------------------------|
B |-2-------10-----xx7==77777777-2-------10-----xx5==========-----------------|
F#|-2-(16x)-10(4x)-xx7==77777777-2-(16x)-10(4x)-xx5==========-----------------|
B |-2-------10-----xx7==77777777-2-------10-----xx5==========-----------------|

C#|---------------------------------------------------------------------------|
G#|---------------------------------------------------------------------------|
E |-9==12=7==11=-9==12=7==9==-------------------------------------------------|
B |-9==8==5==9==-9==8==5==7==-------------------------------------------------|
F#|-7==8==5==9==-7==8==5==7==-------------------------------------------------|
B |----8==5==9==----8==5==7==-------------------------------------------------|

"SOLO"

C#|-------15~~~~~~~~15~~~~~~~~~-------(15)~~~~~~------------------------------|
G#|----15------------------------15-------------------------------------------|
E |-16------------------------16---16~~~~~~~~---------------------------------|
B |---------------------------------------------------------------------------|
F#|---------------------------------------------------------------------------|
B |---------------------------------------------------------------------------|

BRIDGE

C#|---------------------------------------------------------------------------|
G#|---------------------------------------------------------------------------|
E |---------------------------------------------------------------------------|
B |-2--0-2-5-2-0-2--0-2-5-2-0-------------------------------------------------|
F#|-2--0-2-5-2-0-2--0-2-5-2-0-------------------------------------------------|
B |-2--0-2-5-2-0-2--0-2-5-2-0-------------------------------------------------|
                    . . . . .
                                    
C#|----------* harmonic--------------*----------------------------------------|
G#|---------(5)---------------------(5)---------------------------------------|
E |-99------(5)7------------99------(5)7--------------------------------------|
B |-99-99-55(5)7------------99-99-55(5)7-77-1010------------------------------|
F#|-77-99-55---5-5-1010-77--77-99-55---5-77-1010------------------------------|
B |----99-55-----5-1010-77-----99-55-----77-1010------------------------------|
                                    
C#|----------*-----------------------*----------------------------------------|
G#|---------(5)---------------------(5)---------------------------------------|
E |-99------(5)7------------99------(5)7========------------------------------|
B |-99-99-55(5)7------------99-99-55(5)7========------------------------------|
F#|-77-99-55---5-5-1010-77--77-99-55---5========------------------------------|
B |----99-55-----5-1010-77-----99-55------------------------------------------|

| =  hold note
| ~  vibrato
|(*) harmonic
| x  mute string
| .  palm mute

Lyrics:

Life, It's always overblown
Till we wake up create some other needs
Yeah well, cries, heard from man that knows
Let to witness, the cat upon a ledge
Heats source rained down
Dyad Scout craft
Hands reveal a meeting, but did they come?

So I look at the eyes, straight to the soul doorway
I look at the eyes, to know all you know

Find an other labeled hoaxes
Just as Roswell found another link
Reform witness, night abductions
You always felt a meaning, but did they come?

Well, I look at the eyes, straight to the soul doorway
I look at the eyes, to know all you know
And there's a why
I'm burning out inside
With a need to know
One self,
Well I'm burning out inside
With a need to know
Does anybody really see anything?
Does anybody really see anyone?

Lights two miles wide, felt it lift, felt it pull!
That's why
I'm burning out inside,
With a need to know
With self,
While I'm burning out inside, with a need to know

Does anybody really see anyone?
Does anybody really see anyone?
Does anybody really see anything?
Does anybody really see anyone?
Tap to rate this tab
 
# A B C D E F G H I J K L M N O P Q R S T U V W X Y Z