Song name
# A B C D E F G H I J K L M N O P Q R S T U V W X Y Z

Chevelle - Letter From A Thief tab

-------------------------------------------------------------------------------
		      Letter From A Thief - CheVelle
-------------------------------------------------------------------------------
Tabbed by:Chevelleguitar	
Email:irondrummer1@hotmail.com
Both tabs have correct parts but the intro and verse are wrong on both
There is a hammer-on pete uses that's not tabbed out yet. Listen for pattern
Tuning:Drop B

Intro Clean Alternate this strumming pattern
e|---------------------------------------------------------------------------|
B|---------------------------------------------------------------------------|
G|-7---7----10--------77-----------------------------------------------------|
D|-7---7----8--10-----77-----------------------------------------------------|
A|-55h65----8--10-----55h6---------------------------------------------------|
E|-------------10------------------------------------------------------------|
Chorus	
e|---------------------------------------------------------------------------|
B|---------------------------------------------------------------------------|
G|------7-10-----------------------------------------------------------------|
D|-8-10-7-10--------8--------------------------------------------------------|
A|-8-10-5-8---------8--------------------------------------------------------|
E|-8-10-------------8--------------------------------------------------------|
Bridge
e|---------------------------------------------------------------------------|
B|---------------------------------------------------------------------------|
G|-15-14--------15-12--------------------------------------------------------|
D|-x--x-x3 then-x--x---------------------------------------------------------|
A|-13-12--------13-10--------------------------------------------------------|
E|---------------------------------------------------------------------------|
Solo
e|---------------------------------------------------------------------------|
B|---------------------------------------------------------------------------|
G|-9b-10-5-2/-9b-10-5-2-5-2-5/-9b-10-5-2-5-2-3~~~----------------------------|
D|---------------------------------------------------------------------------|
A|---------------------------------------------------------------------------|
E|---------------------------------------------------------------------------|
End the song with
D|-8---0
A|-8---0
E|-8---0

Song order

Intro
Verse
Chorus
Verse
Chorus
Bridge
Solo
Chorus plam muted
Chorus
Ending
| /  slide up
| \  slide down
| h  hammer-on
| p  pull-off
| ~  vibrato
| +  harmonic
| x  Mute note
===============================================================================
Tap to rate this tab
# A B C D E F G H I J K L M N O P Q R S T U V W X Y Z