Song name
# A B C D E F G H I J K L M N O P Q R S T U V W X Y Z

Chevelle - Fell Into Your Shoes tab

Artist: Chevelle
Song: Fell into your shoes
Album: Scifi Crimes
Label: Epic
Tabber: MetalSlayer09
E-mail: 09bpott@gmail.com
	alright here goes another tab for ya guys, well i didn't put 
in exactly how many times to hit each note but if ya listen to the cd 
you should be able to figure that out on your own, anyhow all the
 right notes are there the only part I'm not sure about is part of 
the pre-chorus where I made a note, anyhow ratings are appreciated 
so have fun guys.

tuning: drop d (Dadgbe)

	intro
e-----------------------------------[
b-----------------------------------[
g-----------------------------------[
d-----------------------------------[
a-----------------------------------[
D-0-0-0-0-12-0-0-0--0-0-0-12-0-0-0--[
	verse
e---------[
b---------[
g---------[2nd gtr
d-12-9-4--[
a-12-9-4--[
D-12-9-4--[
[
e---------[
b-17T-14T-[
g---------[1st gtr
d---------[
a---------[
D---------[

prechorus

e--------[--------------------------------[
b--------[--------------------------------[
g-4-7-9--[--------------------------------[
d--------[-not to sure about this part-0-7[
a-2-5-7--[-2-0-8-7-10-9-7-9-10-9-7-9---0-7[
D--------[-2-0-8-7-10-9-7-9-10-9-7-9---0-7[

chorus is the verse

solo

e--------------------------------------------------------------------------------[
b-17T-15T-14T-10T-7Tb-12T-10T-8-7-8-7-8-7------------------------------------7Tb-[
g-----------------------------------------7-6-6-7-9-10-9-7-6-7-6-7-6-7-6-7-6-----[
d--------------------------------------------------------------------------------[
a--------------------------------------------------------------------------------[
D--------------------------------------------------------------------------------[

e----------------------------------------[
b-7Tb-7Tb-12T-10T-8-7-8-7-8-7------------[
g-----------------------------7-6b-6b-6b-[
d----------------------------------------[
a----------------------------------------[
D----------------------------------------[

little part behind pre-chorus

e----------[
b----------[
g-5b-7b-9b-[
d----------[
a----------[
D----------[

outro (over top of the chorus verse 2nd gtr)

e---------[
b---------[
g-9b-9b-6-[
d---------[
a---------[
D---------[

t= tremelo picking
b= bend

if anybody wants a Chevelle song tabbed send me an e-mail, if you know 
the tuning to the song send that too, I always have trouble figuring 
out tunings anyhow, they'res three songs off Sci fi Crimes down only 
8 more to go...
Tap to rate this tab
# A B C D E F G H I J K L M N O P Q R S T U V W X Y Z